Abel Zavala

home > Abel Zaval... > chords

Enamórame Tab

Abel Zavala

Difficulty: ExpertExpert

by DRESTREC

tuner correct add songbook print version text version rtf version e-mail
chordsukulelecavacokeyboardtabbassdrumsharmonicsflute Guitar Pro
chords

Enamórame

	  TRANSCRIPCION DE LA PARTITURA ORIGINAL DEL PROYECTO 
JESUS MI FIEL AMIGO - ABEL ZAVALA. 

(luego coloco la letra encima de la tablatura) 

TONO GM 


ESTROFA 1 : 

   G5                 C2                G/B   Am   G 
E--------------3--------------3----0------------------------------ 
B------3---3-------------3------------3-3-----1----0--0----------- 
G-----0-0-0-0----0------0-0----------0----0--------------0-------- 
D----0---0-------------2---2----------------0--------0--0--------- 
A---------------------3-----3------3----2-----0------------------- 
E--3-----------------------------------------------3-------------- 


   G/B   C2      D                 G5     G/B       C2 
E-----------3-------2H3P2--------------3---------------3---------- 
B-----3------3------------3-----------3------3----------3--------- 
G----0------------2---------2--------0------0--------------------- 
D---0-----2------0-------------------------0---------2------------ 
A--2-----3--------------------------------2---------3------------- 
E----------------------------------3------------------------------ 


 Dsus4 D  Em7     G/B    C      G/B      Em7        Bm 
E--3---2------3------------------------------3---------2---------- 
B-------3----3-------3------------------------3---------3--------- 
G--2-2------0-------0------0------0--------0---------------------- 
D--0---------------0------2-2----0-0-----------------0------------ 
A----------------2------3------2-------------------2-------------- 
E---------0------------------------------0------------------------ 


   C2         Dsus4         D/F# 
E-----------------3----------------------------------------------- 
B----3----------3---3----------3---------------------------------- 
G---0-0-----------------------2----------------------------------- 
D-------------0--------------0------------------------------------ 
A--3------------------------0------------------------------------- 
E----------------------------------------------------------------- 


ESTROFA 2:(iguales los acordes) 

E------3-------------3-------2H3P2------------3---------------3--- 
B-----3--------3------3------------3---------3------3----------3-- 
G----0--------0------------2---------2------0------0-------------- 
D------------0-----2------0-----------------------0---------2----- 
A-----------2-----3------------------------------2---------3------ 
E--3--------------------------------------3----------------------- 


E-----3H2--------3------------------------------3---------2------- 
B--------3------3-------3------------------------3---------3------ 
G---2-----2----0-------0------0------0--------0------------------- 
D--0------------------0------2-2----0-0-----------------0--------- 
A--------------------2------3------2-------------------2---------- 
E------------0------------------------------0--------------------- 


E-----------------2H3P2-------------------3----------------------- 
B----3------------------3--------------3-----3-------------------- 
G---0-0--------2----------2-----------0-0---0-0------------------- 
D-------------0--------------------------------------------------- 
A--3-------------------------------------------------------------- 
E------------------------------------3---------------------------- 


CORO: 

    G7sus4        G  Am C/B   C2                 Bm 
E---1----1----------------------------0-------------------------- 
B---1----1--------0--1--3----------3----------------3------------ 
G-------------------------------0---0---------------------------- 
D-----0----0-------------------2--------2---------4---4---------- 
A--------------------0--2-----3------------------2--------------- 
E---3-------------3---------------------------------------------- 


 (escala)           Am7  G        D/F# 
E---------------5-7-8----7--------5------------------------------ 
B--------5-7-8------------------------3-------------------------- 
G----4-7--------------0----0--------2---2------------------------ 
D---------------------------------------------------------------- 
A-------------------0-------------------------------------------- 
E--0---------------------3--------2------------------------------ 



  Gsus2, G    G/B C2             Bm7          Em7 
E--------------------------------------------------3------------- 
B--1------0--1--3-------3-------------------------3-------------- 
G-----2--------------0-----0--------2------------0--------------- 
D----0-0------------2-2---2-2------4-4--------------------------- 
A------------0--2--3--------------2------------------------------ 
E--3------3------------------------------------0----------------- 


   Am7        G/B         C             G2/B            Am7 
E-------------------------0---0---0-----2H3--5---3H5----3-------- 
B--1---1------3---3---------------------------------------------- 
G----0---0------0---0-------0---0-------------------------------- 
D---------------------------------------------------------------- 
A--0----------2-----------3------------------2----------0-------- 
E---------------------------------------------------------------- 

       G/B    C2        D5 
E---------------------------------------------------------------- 
B---1--0------3---3-------3-------------------------------------- 
G--0-0---0-------0-0-----2--------------------------------------- 
D-----------------------0---------------------------------------- 
A------2--------3------------------------------------------------ 
E---------------------------------------------------------------- 

   C2              Dsus4 D/F# D7sus4 C2        Dsus4 
E--------0----------------------------------------3------------3- 
B-----3----3--1-------3-----3---1-----3-3--------3------------3-- 
G-----0--------------0-0--------0----0-0--------2------------2--- 
D---2----2---------0--------4------------------0------------0---- 
A--3-------------------------------3----------------------------- 
E---------------------------------------------------------------- 


Quiero entregarte mis sueños, 
   tu voluntad haz en ellos, 
   mi corazon te lo entrego, 
   enamorame de ti. 
   quiero aprender A escucharte, 
   quiero saber que es amarte, 
   de tu verdad yo saciarme, 
   enamorame de ti señor. 
   que tu presencia me inunde, 
   haz de mi un odre nuevo, 
   cambiame, renuevame, enamorame, 
   enamorame de ti señor. 
	  

Request the video "Enamórame"  -  Send "Enamórame" Ringtone to your Cell

there isn't a video lesson for this song

request
Full key step upFull key step up
Half key step upHalf key step up
Half key step downHalf key step down
Full key step downFull key step down
Search
auto scroll beats size up size down change color hide chords drawings
tab show chords e-chords YouTube Clip e-chords hide all tabs e-chords go to top tab