Radiohead

home > Radiohead > chords

High And Dry Bass Tab

Radiohead

Difficulty: IntermediateIntermediate

by Seitoshi

tuner correct add songbook print version text version rtf version e-mail
chordsukulelecavacokeyboardtabbassdrummharmonicsflute Guitar Pro
chords

High And Dry

Year: 1995 - Album: The Bends

	  e-mail:seitoshi@bol.com.br 

Intro x2 Verse                       Pre Chorus 
|-------|---------------------------|-----------4-----------------| 
|-4-7---|-4-7---4-7----4-4-6-7-7-6--|------6-4-4-7-7-6-6-4-2------| 
|----7--|----7-7---7--------------7-|-7-7-7-----------7-----4-2-4-| 
|-----0-|-----------7-0-------------|--7--------------------------| 

Chorus                                               Part 1 
|---------------------------------------------------|---------------| 
|-4-4-4-4-4-4-7-7-7-7-7-7---------------------------|-4-4-4-4-4-4-7-| 
|------4-----4-----7-----7-7-7-7-7-7-7-7-7-7-7-7-7--|------4-----4--| 
|-------------------------------7-----7-----7-----7-|---------------| 

Pre Verse        Intro x3 Part 2 
|---------------|--------|--------------| 
|-------4-2-1-2-|-4-7----|-4-4-6-7-7-6--| 
|-7-77-7--------|----7---|------------7-| 
|--7--7---------|-----0--|--------------| 

Then 
Pre Chorus 
Chorus x4 

Then 
|---------------------| 
|-4-7---4-7-----------| 
|----7~-----777777777-| 
|---------------------| 

Then  
Chorus x3 

Then 
|------------------| 
|-4-4-4---4-4--7-2-| 
|-------4----------| 
|------------------| 
	  

Request the video "High And Dry"  -  Send "High And Dry" Ringtone to your Cell

there isn't a video lesson for this song

request
Search
auto scroll beats size up size down change color hide chords drawings
tab show chords e-chords YouTube Clip e-chords hide all tabs e-chords go to top tab