Yeek

I'm Trying

Yeek

tabs

by  LUCICAMARGO

save to print version add songbook text version e-mail correct tuner
chordsukulelecavacokeyboardtabbassdrumsharmonicaflute Guitar Pro
close

there isn't a video lesson for this song

chords

I'm Trying

	  		Intro 

e|------------------------------------------------| 
B|------------------------------------------------| 
G|------------10-----------------------10---------| 
D|--------11---------11------------11--------11---| 
A|--10-------------------------9------------------| 
E|------------------------------------------------| 

e|----------------------------------------------| 
B|----------------------------------------------| 
G|-------5-------5------5-----------------------| 
D|-------6-------6------6-----------------------| 
A|-------4-------4------4-----------------------| 
E|----------------------------------------------| 
		  

See also:

tabs Panic! At The Disco - This Is Halloween tabs JerryC - Canon rock tabs Rihanna - Shut Up And Drive tabs Lindsey Stirling - Crystallize tabs Panic! At The Disco - Only difference between martyrdom and suicide is press coverage tabs Augustana - Boston
e-chords

Other versions:

tabs Face To Face - I'm trying tabs Yeek - I'm Trying
auto scroll beats size up size down change color hide chords drawings
tab show chords e-chords YouTube Clip e-chords hide all tabs e-chords go to top tab

share