Winger

home > Winger

Seventeen Tab

Winger

Difficulty: BeginnerBeginner

by tarikike

tuner correct add songbook print version text version save to e-mail
chordsukulelecavacokeyboardtabbassdrumsharmonicsflute Guitar Pro
chords

Seventeen

  		                                                                        
D#||--------------------------------|----------------------------------| 
A#||-------9---10---9---7---7---7-9-|----------7---7-8-7---------------| 
F#||-------9---9----9---9-----------|--9-------7---7-7-7-----5p0-------| 
C#||-------9---9----9---9-----9-----|--9-7-7---7-7-7-7-7-----5p0---7---| 
G#||--7------7----7---7---7---------|----5---5-----------5/3-----5-7-7-| 
D#||--0-----------------------------|----------------------------3-5-0-| 


                                                                      
---------------------------------|----------------------------------| 
----9---10---9---7---7---7-9-----|------7---8-7---------------------| 
----9---9----9---9---------9-9---|------7---7-7-----5-4-0-5-4-0-7-9-| 
----9---9----9---9-----------9-7-|--7---7-7-7-7-----5-5-0-5-5-0-7-9-| 
------7----7---7---7---7-------5-|----5---------5/3-------------5-7-| 
---------------------------------|--------------------------------0-| 


                                                                      
----------------------------------|---------------------------------| 
-----9---10---9---7---7---7-9-----|------7---7-8-7------------------| 
-----9---9----9---9---------9-9-7-|------7---7-7-7---5p0------------| 
---9-9-9-9----9---9-----9-----9-7-|--7---7---7---7---5p0----------7-| 
-----7-7----7---7---7-----------5-|----5---5-------5/----5-7------7-| 
----------------------------------|----------------------3-5--2-3-5-| 


                                                         
----------------------------|--------------------------| 
----------------------------|--------------------------| 
---------------7~--6--------|------x------------2------| 
---------------5~--5------7-|---7--x--7-----5---0---7--| 
----3-5-3-----------------7-|---7--x--7-----5---x---7--| 
----------5-5---------5-5-5-|---5-----5-2-3-3---2---5--| 


                                                           
-----------------------------|---------------------------| 
-----------------------------|---------------------------| 
----------------7~--6--------|-------------------------2-| 
--7-------------5~--5------7-|---7---7----7------------2-| 
--7--3-5-3-----------------7-|---7---7----5--3-2-0-----0-| 
--5--------5-5---------5-5-5-|---5---5-------------3-0---| 


                                                      
----------------------------|-----------------------| 
----------------------------|------------3----------| 
---------------7~--6--------|------------2----------| 
---------------5~--5------7-|---7---7----0---5---7--| 
----3-5-3-----------------7-|---7---7----x---5---7--| 
----------5-5---------5-5-5-|---5---5----3---3---5--| 


                                                          
----------------------------|---------------------------| 
----------------------------|---------------------------| 
---------------7~--6--------|---------------------------| 
---------------5~--5------7-|---7---7----7------------3-| 
----3-5-3-----------------7-|---7---7----5--3-2-0-----3-| 
----------5-5---------5-5-5-|---5---5-------------3-0-1-| 


                                                           
-------------------------|-------------------------------| 
-------------------------|-------------------------5-----| 
------------------5~-----|---------5h7-----5p2-----2-----| 
--------3--3--5---5~7----|---------5h7-----5p2-----2-----| 
--------3--3--5-----7----|----0--0-----0-0-----0-0---0---| 
----1-1----1--3-----5----|-----------------------------0-| 


                                                             
-----------------------2--|--------------------------------| 
-------------3------5--x--|----------7---------------------| 
-------------0------2--4--|--4-------4--4-5-5p0---2--------| 
--3----3--3--0------2--4--|----4---4-4------5p0---2------2-| 
--3----3--3--x--x-x-0--2--|------2----------------0------2-| 
--1----1--1--3------------|---------------------3----3-2-0-| 


                                                                        
---------------------------------|------------------------------------| 
----9---10---9---7---7---7-9-----|------7---7-8-7---------------------| 
----9---9----9---9-----------9---|------7---7-7-7-----5-4-0-5-4-0-7-9-| 
----9---9----9---9-----9-----9-7-|--7---7---7-7-7-----5-5-0-5-5-0-7-9-| 
------7----7---7---7-----------5-|----5---5-------5/3-------------5-7-| 
---------------------------------|----------------------------------0-| 


                                                                      
---------------------------------|----------------------------------| 
----9---10---9---7---7---7-9-----|------7---7-8-7-------------------| 
----9---9----9---9-----------9---|------7---7-7-7-----5p0---2-------| 
----9---9----9---9-----9-----9-7-|--7---7---7-7-7-----5p0---2-----2-| 
------7----7---7---7-----------5-|----5---5-------5/3-------0-----2-| 
---------------------------------|------------------------3---3-2-0-| 


                                                                        
---------------------------------|------------------------------------| 
----9---10---9---7---7---7-9-----|------7---7-8-7---------------------| 
----9---9----9---9-----------9---|------7---7-7-7-----5-4-0-5-4-0-7-9-| 
----9---9----9---9-----9-----9-7-|--7---7---7-7-7-----5-5-0-5-5-0-7-9-| 
------7----7---7---7-----------5-|----5---5-------5/3-------------5-7-| 
---------------------------------|----------------------------------0-| 


                                                                      
---------------------------------|----------------------------------| 
----9---10---9---7---7---7-9-----|------7---7-8-7-------------------| 
----9---9----9---9-----------9---|------7---7-7-7-----5p0---2-------| 
----9---9----9---9-----9-----9-7-|--7---7---7-7-7-----5p0---2-----2-| 
------7----7---7---7-----------5-|----5---5-------5/3-------0-----2-| 
---------------------------------|------------------------3---2-3-0-| 


                                                         
----------------------------|--------------------------| 
----------------------------|--------------------------| 
---------------7~--6--------|------x------------2------| 
---------------5~--5------7-|---7--x--7-----5---0---7--| 
----3-5-3-----------------7-|---7--x--7-----5---x---7--| 
----------5-5---------5-5-5-|---5-----5-2-3-3---2---5--| 


                                                           
-----------------------------|---------------------------| 
-----------------------------|---------------------------| 
----------------7~--6--------|-------------------------2-| 
--7-------------5~--5------7-|---7---7----7------------2-| 
--7--3-5-3-----------------7-|---7---7----5--3-2-0-----0-| 
--5--------5-5---------5-5-5-|---5---5-------------3-0---| 


                                                      
----------------------------|-----------------------| 
----------------------------|------------3----------| 
---------------7~--6--------|------------2----------| 
---------------5~--5------7-|---7---7----0---5---7--| 
----3-5-3-----------------7-|---7---7----x---5---7--| 
----------5-5---------5-5-5-|---5---5----3---3---5--| 


                                                          
----------------------------|---------------------------| 
----------------------------|---------------------------| 
---------------7~--6--------|---------------------------| 
---------------5~--5------7-|---7---7----7------------3-| 
----3-5-3-----------------7-|---7---7----5--3-2-0-----3-| 
----------5-5---------5-5-5-|---5---5-------------3-0-1-| 


                                                           
-------------------------|-------------------------------| 
-------------------------|-------------------------5-----| 
------------------5~-----|---------5h7-----5p2-----2-----| 
--------3--3--5---5~7----|---------5h7-----5p2-----2-----| 
--------3--3--5-----7----|----0--0-----0-0-----0-0---0---| 
----1-1----1--3-----5----|-----------------------------0-| 


                                                             
-----------------------2--|--------------------------------| 
-------------3------5--x--|----------7---------------------| 
-------------0------2--4--|--4-------4--4-5-5p0---2--------| 
--3----3--3--0------2--4--|----4---4-4------5p0---2------2-| 
--3----3--3--x--x-x-0--2--|------2----------------0------2-| 
--1----1--1--3------------|---------------------3----3-2-0-| 


                                                                        
---------------------------------|------------------------------------| 
----9---10---9---7---7---7-9-----|------7---7-8-7---------------------| 
----9---9----9---9-----------9---|------7---7-7-7-----5-4-0-5-4-0-7-9-| 
----9---9----9---9-----9-----9-7-|--7---7---7-7-7-----5-5-0-5-5-0-7-9-| 
------7----7---7---7-----------5-|----5---5-------5/3-------------5-7-| 
---------------------------------|----------------------------------0-| 


                                                                      
---------------------------------|----------------------------------| 
----9---10---9---7---7---7-9-----|------7---7-8-7-------------------| 
----9---9----9---9-----------9---|------7---7-7-7-----5p0---2-------| 
----9---9----9---9-----9-----9-7-|--7---7---7-7-7-----5p0---2-----2-| 
------7----7---7---7-----------5-|----5---5-------5/3-------0-----2-| 
---------------------------------|------------------------3---3-2-0-| 


                                                                        
---------------------------------|------------------------------------| 
----9---10---9---7---7---7-9-----|------7---7-8-7---------------------| 
----9---9----9---9-----------9---|------7---7-7-7-----5-4-0-5-4-0-7-9-| 
----9---9----9---9-----9-----9-7-|--7---7---7-7-7-----5-5-0-5-5-0-7-9-| 
------7----7---7---7-----------5-|----5---5-------5/3-------------5-7-| 
---------------------------------|----------------------------------0-| 


                                                           
----------------------------|----------------------------| 
-----9---10---9-------------|----------------------------| 
--9--9---9----9---9---------|--------12-12------5---5----| 
--9--9---9----9---9-------5-|--------------12-5---5------| 
--7----7----7---7-7-------5-|----------------------------| 
--0-----------------------3-|----------------------------| 


                                                                   
-------------------------------|---------------------------------| 
-------7-------7---7-----7-----|------------------------------10b| 
---------------7-------9-----9~|----7-7-7h9p7-6---6-6------------| 
--9~-----9-9-9---9---9-----9---|----------------9----------------| 
-------------------------------|----------------------9-7-9~-----| 
-------------------------------|---------------------------------| 


                                        
----7----------7------9r-7----7-------| 
------10p7-10b---10p7------10-----7---| 
--------------------------------9---9~| 
--------------------------------------| 
--------------------------------------| 
--------------------------------------| 


                                              
-----------7-9-10-9-10-10-10/12~-10p9h10h12-| 
--------10----------------------------------| 
----7---------------------------------------| 
------7-------------------------------------| 
--------------------------------------------| 
--------------------------------------------| 


                                                                                 
--14p12p10p9h10h12h14p12p10p9--------------------------------------------------- 
------------------------------12h14p10h12p10p8h10h12p8h10p8p7h8h10p7h8p7h8h10p8p 
-------------------------------------------------------------------------------- 
-------------------------------------------------------------------------------- 
-------------------------------------------------------------------------------- 
-------------------------------------------------------------------------------- 


                                                                              
-------------------------------|-----------7--------------------------------| 
-------------------------------|-------------10p7----7----------------------| 
-----------7---7b7r----7-------|---------9b-------10---10p9p7---9-7---------| 
----x--7/9---9-----9-7---7-9-9-|--9--x-x----------------------9-----9-7---7-| 
----x--------------------------|-----x-x--------------------------------9---| 
-------------------------------|--------------------------------------------| 


                       
------------------19-| 
---------------------| 
---------------------| 
--------------7/-----| 
---------------------| 
---------------------| 


                                                                                 
--19-19-19-19-19-19-19-19-20p19-17-19-19-19-19-20p19-17-19-19-19-19-20-19-17-19- 
-------------------------------------------------------------------------------- 
-------------------------------------------------------------------------------- 
-------------------------------------------------------------------------------- 
-------------------------------------------------------------------------------- 
-------------------------------------------------------------------------------- 


                                                                      
--19-19-19--20p19-17----17------------------------------------------| 
---------------------20----20p17-20p17-20p17----17------------------| 
---------------------------------------------19----19b19------------| 
--------------------------------------------------------------------| 
------------------------------------------------------------19/-x-7-| 
----------------------------------------------------------------x---| 


                                                                                 
-------------------------------------------------------------------------15h17h1 
----------------------------------------------13h15-17-18-17-15----17h19-------- 
-------------------------------------12-14h16-------------------17-------------- 
--------7------7/9h10h12p10h11h12h14-------------------------------------------- 
---9h10---10p9------------------------------------------------------------------ 
-------------------------------------------------------------------------------- 


                                                       
--19-17-15-14-------------------------------------22b| 
--------------17-19-17-15---------------17b----------| 
--------------------------17-19-17-14-0--------------| 
-----------------------------------------------------| 
-----------------------------------------------------| 
-----------------------------------------------------| 


                                                               
-----------------------------|-------------------------------| 
-----------------------------|-------------------------------| 
----------------6--6--6-7----|------------------9-----11b----| 
-----5-7-5-------------------|----5-7-5------6----6/7--------| 
---7-------7--7-4--4--4-5--7-|--7-------7--7----7-----9b---7-| 
---0-3-5-3-0--0------------0-|--0-3-5-3-0--0-4----4/5------0-| 


                                                               
-----------------------------|-------------------------------| 
-----------------------------|-------------------------------| 
----------------6--6--6-7~---|------------------9-----11b--2-| 
-----5-7-5-------------------|----5-7-5------6----6/7------2-| 
---7-------7--7-4--4--4-5~-7-|--7-------7--7----7-----9b---0-| 
---0-3-5-3-0--0------------0-|--0-3-5-3-0--0-4----4/5--------| 


                                                         
----------------------------|--------------------------| 
----------------------------|--------------------------| 
---------------7~--6--------|------x------------2------| 
---------------5~--5------7-|---7--x--7-----5---0---7--| 
----3-5-3-----------------7-|---7--x--7-----5---x---7--| 
----------5-5---------5-5-5-|---5-----5-2-3-3---2---5--| 


                                                           
-----------------------------|---------------------------| 
-----------------------------|---------------------------| 
----------------7~--6--------|-------------------------2-| 
--7-------------5~--5------7-|---7---7----7------------2-| 
--7--3-5-3-----------------7-|---7---7----5--3-2-0-----0-| 
--5--------5-5---------5-5-5-|---5---5-------------3-0---| 


                                                      
----------------------------|-----------------------| 
----------------------------|------------3----------| 
---------------7~--6--------|------------2----------| 
---------------5~--5------7-|---7---7----0---5---7--| 
----3-5-3-----------------7-|---7---7----x---5---7--| 
----------5-5---------5-5-5-|---5---5----3---3---5--| 


                                                          
----------------------------|---------------------------| 
----------------------------|---------------------------| 
---------------7~--6--------|---2---2----2--------------| 
---------------5~--5------7-|---2---2----0------------2-| 
----3-5-3-----------------7-|---0---0-------3-2-0-----2-| 
----------5-5---------5-5-5-|---------------------3-0-0-| 


                                                                       
----------------------------------|----------------------------------| 
-----9---10---9---7---7---7-9-----|------7---8-7---------------------| 
-----9---9----9---9---------9-9---|------7---7-7-----5-4-0-5-4-0-7-9-| 
--2--9---9----9---9-----------9-7-|--7---7---7-7-----5-5-0-5-5-0-7-9-| 
--2----7----7---7---7---7-------5-|----5---5-----5/3-------------5-7-| 
--0-------------------------------|--------------------------------0-| 


                                                                       
----------------------------------|----------------------------------| 
-----9---10---9---7---7---7-9-----|------7---7-8-7-------------------| 
--9--9---9----9---9---------9-9---|------7---7-7-7-----5p0---2-------| 
--9--9---9----9---9-----------9-7-|--7---7---7-7-7-----5p0---2-----2-| 
--7----7----7---7---7---7-------5-|----5---5-------5/3-------0-----2-| 
--0-------------------------------|------------------------3---3-2-0-| 


                                                                       
----------------------------------|----------------------------------| 
-----9---10---9---7---7---7-9-----|------7---8-7---------------------| 
-----9---9----9---9---------9-9---|------7---7-7-----5-4-0-5-4-0-7-9-| 
--2--9---9----9---9-----------9-7-|--7---7---7-7-----5-5-0-5-5-0-7-9-| 
--2----7----7---7---7---7-------5-|----5---5-----5/3-------------5-7-| 
--0-------------------------------|--------------------------------0-| 


                                                                       
----------------------------------|----------------------------------| 
-----9---10---9---7---7---7-9-----|------7---7-8-7-------------------| 
--9--9---9----9---9---------9-9---|------7---7-7-7-----5p0---2-------| 
--9--9---9----9---9-----------9-7-|--7---7---7-7-7-----5p0---2-----2-| 
--7----7----7---7---7---7-------5-|----5---5-------5/3-------0-----2-| 
--0-------------------------------|------------------------3---3-2-0-| 


                                                                       
----------------------------------|----------------------------------| 
-----9---10---9---7---7---7-9-----|------7---8-7---------------------| 
-----9---9----9---9---------9-9---|------7---7-7-----5-4-0-5-4-0-7-9-| 
--2--9---9----9---9-----------9-7-|--7---7---7-7-----5-5-0-5-5-0-7-9-| 
--2----7----7---7---7---7-------5-|----5---5-----5/3-------------5-7-| 
--0-------------------------------|--------------------------------0-| 


                                                                       
----------------------------------|----------------------------------| 
-----9---10---9---7---7---7-9-----|------7---7-8-7-------------------| 
--9--9---9----9---9---------9-9---|------7---7-7-7-----5p0---2-------| 
--9--9---9----9---9-----------9-7-|--7---7---7-7-7-----5p0---2-----2-| 
--7----7----7---7---7---7-------5-|----5---5-------5/3-------0-----2-| 
--0-------------------------------|------------------------3---3-2-0-| 


                                                                   
---------5-7-10---------|---------------------------------12-----| 
------------------------|-------12-12----12--15p12--12-15----15b-| 
----------------4----4/-|----14-------14~------------------------| 
------------------------|----------------------------------------| 
------------------------|----------------------------------------| 
------------------------|----------------------------------------| 


                                                             
--------------------------|--------------------------------| 
----15b---------15r-12-14-|--14r-12----12---------------17-| 
--------------------------|---------14----12---------------| 
--------------------------|---------------12-14~-----------| 
--------------------------|--------------------------------| 
--------------------------|--------------------------------| 


                                                
---16----19----19----16h17p16----------16-----| 
------17----17----17----------19-17-19--------| 
-------------------------------------------19r| 
----------------------------------------------| 
----------------------------------------------| 
----------------------------------------------| 


                                      
------------------------------------| 
------------------------------------| 
-----19-19--16h19r--16-19-16--------| 
-----------------------------19-18~-| 
------------------------------------| 
------------------------------------| 


                                                 
-----------------------------------------------| 
-----------------------------------------------| 
----13h14p13-------------------------12-14--14-| 
-------------14-------------12----14-12-12--12-| 
----------------14-14-14-14----14-14-----------| 
-----------------------------------------------| 


                                  
--------------------------------| 
--------------------------------| 
---14-14-12-14/-16-16~----------| 
---12-12-12-12---------------14-| 
--------------------------------| 
--------------------------------| 


                                                                                 
-------------------------------------------------------------------------------- 
------------------------------------------------------------15h17h19h21p19p17--1 
------------------------------13h14h16h18p16p14p13h14h16h18--------------------- 
---12h14h16p14~12h16p12h14h16--------------------------------------------------- 
-------------------------------------------------------------------------------- 
-------------------------------------------------------------------------------- 


                                                                                 
--19-21p19p17p16---------------------------------------------------------------- 
-----------------19-21p19p17p16------------------------------------------------- 
--------------------------------19-21p19p18p16h19h21p19p18p16------------------- 
--------------------------------------------------------------19-21p19p18p16---- 
-----------------------------------------------------------------------------19- 
-------------------------------------------------------------------------------- 


                                                   
-------------------------------------------------| 
-------------------------------------------------| 
------------12b12b-------------------------------| 
---14-14-12-------14~-12-------------------------| 
-------------------------14/12-10-12-12-10-------| 
-------------------------------------------12-10~| 


                                               
---------------------------------------------| 
-----------------------12-12~-12-15p12----12-| 
-----------12----14-13-----------------14----| 
------9/14----14-----------------------------| 
---------------------------------------------| 
---------------------------------------------| 


                                                                                 
-------------------------------------------------------------------------------- 
--15p12----12-15p12----12-15p12----12-15p12----12-15p12----12-15p12----12-15p12- 
--------14----------14----------14----------14----------14----------14---------- 
-------------------------------------------------------------------------------- 
-------------------------------------------------------------------------------- 
-------------------------------------------------------------------------------- 


                                                                           
-------------------------------------------------------------12-------14r| 
--15p12-14p12----12-15p12-14p12----12-15p12-14p12----12-15b-----15p12----| 
--------------14----------------14----------------14---------------------| 
-------------------------------------------------------------------------| 
-------------------------------------------------------------------------| 
-------------------------------------------------------------------------| 


                                                  
---12----12----12-------------------------------| 
------15----15b---15p12-------------------------| 
------------------------15-14-12----14-12b------| 
---------------------------------14-------14-12~| 
---------------------------------14-------------| 
------------------------------------------------| 


                                                        
-------------------------------------12----------|---|| 
-------------------15-------------------12----15-|---|| 
----------------------14-------16----------------|---|| 
----12-12-12-12-12-------14-14----14-------14----|---|| 
-------------------------------------------------|---|| 
-------------------------------------------------|---|| 
	  

Search Paypal
auto scroll beats size up size down change color hide chords drawings
tab show chords e-chords YouTube Clip e-chords hide all tabs e-chords go to top tab