Winger

home > Winger

Easy Come Easy Go Tab

Winger

Difficulty: ExpertExpert

by jov%2Dcorrea

tuner correct add songbook print version text version save to e-mail
chordsukulelecavacokeyboardtabbassdrumsharmonicsflute Guitar Pro
chords

Easy Come Easy Go

  		(intro) 

E|-----------------------------------------------0---------------| 
B|---------------3-------------------------------0---3-----------| 
G|---------------2--2--------------------------------2--2--------| 
D|---------------0--2--------------------2-----2-----0--2--------| 
A|---02-----2-2-----0---x2 then---02-----2-----2--------0--------| 
E|-------3--0-0-----------------------3--0--3--0-----------------| 

E|-----------------------------------------------------------------------| 
B|-----------------------------------------------------------------------| 
G|---5--5--------7-------------------------------------------------------| 
D|---5--5--5--5--7-------------------------------------------------------| 
A|---3--3--5--5--5-------------------------------------------------------| 
E|---------3--3----------------------------------------------------------| 

(Refrão) 
E|---------3----2-2-3---2-------------------------------------------------| 
B|---------3----3-3-3------3----------------------------------------------| 
G|--------------2-2-2---------2-------------------------------------------| 
D|--------------0-0-0-----------------------------------------------------| 
A|--3-2-0--2--------------------------------------------------------------| 
E|---------3--------------------------------------------------------------| 
	  

Search Paypal
auto scroll beats size up size down change color hide chords drawings
tab show chords e-chords YouTube Clip e-chords hide all tabs e-chords go to top tab