Whitecross

Get real

Whitecross

tabs

by  EDUARDO_LYVIO

save to print version add songbook text version e-mail correct tuner
chordsukulelecavacokeyboardtabbassdrumsharmonicaflute Guitar Pro
close

there isn't a video lesson for this song

chords

Get real

Year: 1996 - Album: Flytrap

	  		Obs: as notas: "Em" e "Ebaug/E" são tocadas no violão           (Ebaug) 
                                                                e:---x| 
                                                                B:---x| 
                                                                G:---1| 
                                                                D:---0| 
                                                                A:---0| 
                                                                E:---0| 
           (Introdução) 
e:---------------|---------------| 
B:---------------|---------------| 
G:---------------|---------------|4x 
D:---------------|---------------| 
A:---------------|---------------| 
E:-0--7-6-5-3-5-7|-0--7-6-5-3-5-7| 
 
Em,Ebaug/E                   
 
e:---------------|---------------| 
B:---------------|---------------| 
G:---------------|---------------|2x 
D:---------------|---------------| 
A:---------------|---------------| 
E:-0--7-6-5-3-5-7|-0--7-6-5-3-5-7| 
 
Em,Ebaug/E 
 
e:---------------|---------------| 
B:---------------|---------------| 
G:---------------|---------------|2x 
D:---------------|---------------| 
A:---------------|---------------| 
E:-0--7-6-5-3-5-7|-0--7-6-5-3-5-7| 
 
e:------------------|------------------| 
B:------------------|------------------| 
G:------------------|------------------|2x 
D:----------------7-|----------7-7-7-5-| 
A:-6-6-6-4--6-6-6-5-|-6-6-6-4--5-5-5-3-| 
E: 4-4-4-2--4-4-4---|-4-4-4-2----------| 
 
 Refrão 
e:---------------|---------------| 
B:---------------|---------------| 
G:---------------|---------------|4x 
D:---------------|---------------| 
A:---------------|---------------| 
E:-0--7-6-5-3-5-7|-0--7-6-5-3-5-7| 
 
Em,Ebaug/E                   
 
e:---------------|---------------| 
B:---------------|---------------| 
G:---------------|---------------|2x 
D:---------------|---------------| 
A:---------------|---------------| 
E:-0--7-6-5-3-5-7|-0--7-6-5-3-5-7| 
 
Em,Ebaug/E                   
 
e:---------------|---------------| 
B:---------------|---------------| 
G:---------------|---------------|2x 
D:---------------|---------------| 
A:---------------|---------------| 
E:-0--7-6-5-3-5-7|-0--7-6-5-3-5-7| 
 
e:------------------|------------------| 
B:------------------|------------------| 
G:------------------|------------------|2x 
D:----------------7-|----------7-7-7-5-| 
A:-6-6-6-4--6-6-6-5-|-6-6-6-4--5-5-5-3-| 
E: 4-4-4-2--4-4-4---|-4-4-4-2----------| 
 
e:---------------|---------------| 
B:---------------|---------------| 
G:---------------|---------------|4x 
D:---------------|---------------| 
A:---------------|---------------| 
E:-0--7-6-5-3-5-7|-0--7-6-5-3-5-7| 
 
e:-----------------| 
B:-----------------| 
G:-----------------|3x 
D:-----7--8--------| 
A:-6---5--6--9--11-| 
E:-4---------7--9--| 
 
Solo 
 
e:---------------|---------------| 
B:---------------|---------------| 
G:---------------|---------------|2x 
D:---------------|---------------| 
A:---------------|---------------| 
E:-0--5--3--0--5-3--0-3-5 
 
Em,Ebaug/E                   
 
e:---------------|---------------| 
B:---------------|---------------| 
G:---------------|---------------|1x 
D:---------------|---------------| 
A:---------------|---------------| 
E:-0--7-6-5-3-5-7|-0--7-6-5-3-5-7| 
 
Em,Ebaug/E                   
 
e:------------------|------------------| 
B:------------------|------------------| 
G:------------------|------------------|2x 
D:----------------7-|----------7-7-7-5-| 
A:-6-6-6-4--6-6-6-5-|-6-6-6-4--5-5-5-3-| 
E: 4-4-4-2--4-4-4---|-4-4-4-2----------| 
 
 Refrão 
e:---------------|---------------| 
B:---------------|---------------| 
G:---------------|---------------|8x 
D:---------------|---------------| 
A:---------------|---------------| 
E:-0--7-6-5-3-5-7|-0--7-6-5-3-5-7| 
 

		  

Full key step upFull key step up
Half key step upHalf key step up
Half key step downHalf key step down
Full key step downFull key step down
hide glossary

See also:

tabs Bloodgood - Out of the darkness tabs Chris Tomlin - Not To Us tabs FFH - one of these days tabs Hank Williams - I'm So Lonesome I Could Cry tabs Audio Adrenaline - Free Ride tabs Caedmon's Call - Lead of Love
e-chords

Other versions:

tabs White Cross - Get real tabs Whitecross - Get real
auto scroll beats size up size down change color hide chords drawings
tab show chords e-chords YouTube Clip e-chords hide all tabs e-chords go to top tab

share