While She Sleeps

Inspire

While She Sleeps

tabs

by  BOMBAXXX

save to print version add songbook text version e-mail correct tuner
chordsukulelecavacokeyboardtabbassdrumsharmonicaflute Guitar Pro
close

there isn't a video lesson for this song

chords

Inspire

Key:  C More
Inspire Key GG
Inspire Key G#G#
Inspire Key AA
Inspire Key A#A#(one step down)
Inspire Key BB(half step down)
Inspire Key CC(original key)
Inspire Key C#C#(half step up)
Inspire Key DD(one step up)
Inspire Key D#D#
Inspire Key EE
Inspire Key FF
Inspire Key F#F#
	  		While She Sleeps - INSPIRE 
Album: So What? 

Tuning: Drop C 

Tabbed by: Jasper Vellekoop 

Intro 
D|-------------------------------------| 
A|-------------------------------------| 
F|-------------------------------------| 
C|--0---0---0---0-0-0-7--8-8-8--3-3-5--| 
G|--0---0---0---0-0-0-7--8-8-8--3-3-5--| 
C|--0---0---0---0-0-0-7--8-8-8--3-3-5--| 

D|-------------------------------------| 
A|-------------------------------------| 
F|-------------------------------------| 
C|--0---0---0---0-0-0-7--8-8-----------| 
G|--0---0---0---0-0-0-7--8-8-----------| 
C|--0---0---0---0-0-0-7--8-8-10-10-5-7-| They play these two twice 


verse 1 
I'm not sure if this is played on a guitar. But here it is anyway. 
D|-----------------------------------|-----------------------------------| 
A|-----------------------------------|-----------------------------------| 
F|----------------5------------------|----------------5------------------| 
C|------------------7----4/5--4/5----|------------------7----------------| 
G|--5-----5-8-7-5-----------------5--|--5-----5-8-7-5--------------------| 
C|-----------------------------------|-----------------------------------| 2x 


Pre Chorus 
D|----------------------------------|-----------------------| 
A|----------------------------------|-----------------------| 
F|----------------------------------|-------9h10p9----------| 
C|-12p0h12p0h12p0h12p0h12p0h12p0h12-|-10h12--------12p10h12-| 
G|----------------------------------|-----------------------| 
C|----------------------------------|-----------------------|  

D|----------------------------------|--------------------------| 
A|----------------------------------|--------------------------| 
F|----------------------------------|--------------------------| 
C|-12p0h12p0h12p0h12p0h12p0h12p0h12-|-17h19p17h19p17h19p17h19p-| 
G|----------------------------------|--------------------------| 
C|----------------------------------|--------------------------|  

D|----------------------------------|-----------------------| 
A|----------------------------------|-----------------------| 
F|----------------------------------|-------9h10p9----------| 
C|-12p0h12p0h12p0h12p0h12p0h12p0h12-|-10h12--------12p10h12-| 
G|----------------------------------|-----------------------| 
C|----------------------------------|-----------------------|  

D|----------------------------------|--------------------------| 
A|----------------------------------|--------------------------| 
F|----------------------------------|--------------------------| 
C|-12p0h12p0h12p0h12p0h12p0h12p0h12/|--------------------------| 
G|----------------------------------|--------------------------| 
C|----------------------------------|--------------------------|  


Chorus 
Lyric: To the west. To the west! 
D|-------------------------------------| 
A|-------------------------------------| 
F|-------------------------------------| 
C|--0---0---0---0-0-0-7--8-8-8--3-3-5--| 
G|--0---0---0---0-0-0-7--8-8-8--3-3-5--| 
C|--0---0---0---0-0-0-7--8-8-8--3-3-5--| 

D|-------------------------------------| 
A|-------------------------------------| 
F|-------------------------------------| 
C|--0---0---0---0-0-0-7--8-8-----------| 
G|--0---0---0---0-0-0-7--8-8-----------| 
C|--0---0---0---0-0-0-7--8-8-10-10-5-7-|  

Play these two sections 2x 

Chorus Lead part  
D|------------------------------------| 
A|------------------------------------| 
F|------------------------------------| 
C|------------------------------------| 
G|--5----3h5--------5---3h5/8-10-7-8--| 
C|----7-------7-7-----7---------------| This repeats 



Post Chorus 
D|-----------------------------------| 
A|-----------------------------------| 
F|-----------------------------------| 
C|-----------------------------------| 
G|-----------------------------------| 
C|--0-0-10h12-0-0-0-10h12-0-0--------|  

Post Chorus lead part 
D|-----------------------------------|-----------------------------------| 
A|-----------------------------------|-----------------------------------| 
F|----------------5------------------|----------------5------------------| 
C|------------------7----4/5--4/5----|------------------7----------4/5---| 
G|--5-----5-8-7-5-----------------5--|--5-----5-8-7-5------------------5-| 
C|-----------------------------------|-----------------------------------|  

D|-----------------------------------|-----------------------------------| 
A|-----------------------------------|-----------------------------------| 
F|----------------5------------------|----------------5------------------| 
C|------------------7----4/5--4/5----|------------------7----------4/5---| 
G|--5-----5-8-7-5-----------------5--|--5-----5-8-7-5--------------------| 
C|-----------------------------------|-----------------------------------|  


verse 2 


Chorus 
Lyric: To the west. To the west! 
D|-------------------------------------| 
A|-------------------------------------| 
F|-------------------------------------| 
C|--0---0---0---0-0-0-7--8-8-8--3-3-5--| 
G|--0---0---0---0-0-0-7--8-8-8--3-3-5--| 
C|--0---0---0---0-0-0-7--8-8-8--3-3-5--| 

D|-------------------------------------| 
A|-------------------------------------| 
F|-------------------------------------| 
C|--0---0---0---0-0-0-7--8-8-----------| 
G|--0---0---0---0-0-0-7--8-8-----------| 
C|--0---0---0---0-0-0-7--8-8-10-10-5-7-|  

Play these two sections 2x  

Chorus Lead part  
D|------------------------------------| 
A|------------------------------------| 
F|------------------------------------| 
C|------------------------------------| 
G|--5----3h5--------5---3h5/8-10-7-8--| 
C|----7-------7-7-----7---------------| This repeats 



Riff post Chorus 
D|-------------------------------------|-----------------------------------| 
A|---------10~--------10~--------------|--------11~--------8~--------------| 
F|-------------------------------------|-----------------------------------| 
C|--0---0------0---0-------0-x-x-x-x-3-|-0---0------0---0------------------| 
G|--0---0------0---0-------0-x-x-x-x-3-|-0---0------0---0------------------| 
C|--0---0------0---0-------0-x-x-x-x-3-|-0---0------0---0------5-7-7-5-3-0-| 2x 


Breakdown 
D|------------------------------|--------------------------------------| 
A|------------------------------|--------------------------------------| 
F|------------------------------|--------------------------------------| 
C|------------------------------|--------------------------------------| 
G|------------------------------|--------------------------------------| 
C|-12-10-12-10-0--12-10-12-10-0-|-3-1-3-1-0--3-1-3-1-0--3-3-3-3-5-5-5-5|  

D|------------------------------|--------------------------------------| 
A|------------------------------|--------------------------------------| 
F|------------------------------|--------------------------------------| 
C|------------------------------|-----------------------6---1----------| 
G|------------------------------|-----------------------6---1----------| 
C|-12-10-12-10-0--12-10-12-10-0-|-3-1-3-1-0--3-1-3-1-0--6---1----------|  

D|------------------------------|--------------------------------------| 
A|------------------------------|--------------------------------------| 
F|------------------------------|--------------------------------------| 
C|------------------------------|--------------------------------------| 
G|------------------------------|--------------------------------------| 
C|-12-10-12-10-0--12-10-12-10-0-|-3-1-3-1-0--3-1-3-1-0--3-3-3-3-5-5-5-5|  

D|------------------------------|--------------------------------------| 
A|------------------------------|--------------------------------------| 
F|------------------------------|--------------------------------------| 
C|------------------------------|-----------------------4---3---1------| 
G|------------------------------|-----------------------4---3---1------| 
C|-12-10-12-10-0--12-10-12-10-0-|-3-1-3-1-0--3-1-3-1-0--4---3---1------|  

D|------------------------------|--------------------------------------| 
A|------------------------------|--------------------------------------| 
F|------------------------------|--------------------------------------| 
C|------------------------------|--------------------------------------| 
G|------------------------------|--------------------------------------| 
C|-12-10-12-10-0--12-10-12-10-0-|-3-1-3-1-0--3-1-3-1-0--3-3-3-3-5-5-5-5|  

D|------------------------------|--------------------------------------| 
A|------------------------------|--------------------------------------| 
F|------------------------------|--------------------------------------| 
C|------------------------------|--------------4--3--4--1-1-1----------| 
G|------------------------------|--------------4--3--4--1-1-1----------| 
C|-12-10-12-10-0--12-10-12-10-0-|-3-1-3-1-0----4--3--4--1-1-1----------|  


Clean part 
D|------------------------------------| 
A|------------------------------------| 
F|------------------------------------| 
C|------------------------------------| 
G|--5----3h5--------5---3h5/8-10-7-8--| 
C|----7-------7-7-----7---------------| This repeats 


Bridge 
D|--------------------------------|--------------------------------| 
A|--------------------------------|--------------------------------| 
F|--------------------------------|--------------------------------| 
C|--0-0-0-0-0-0-0-0-0-0-0-0-0-0-0-|-10-10-10-10-10-10-10-10-10-10--| 
G|--0-0-0-0-0-0-0-0-0-0-0-0-0-0-0-|-10-10-10-10-10-10-10-10-10-10--| 
C|--0-0-0-0-0-0-0-0-0-0-0-0-0-0-0-|-10-10-10-10-10-10-10-10-10-10--| 

D|--------------------------------|--------------------------------| 
A|--------------------------------|--------------------------------| 
F|--------------------------------|--------------------------------| 
C|--7-7-7-7-7-7-7-7-7-7-7-7-7-7-7-|-8-8-8-8-8-8-8-8-8-8-8-8-8-8-8--| 
G|--7-7-7-7-7-7-7-7-7-7-7-7-7-7-7-|-8-8-8-8-8-8-8-8-8-8-8-8-8-8-8--| 
C|--7-7-7-7-7-7-7-7-7-7-7-7-7-7-7-|-8-8-8-8-8-8-8-8-8-8-8-8-8-8-8--| 

Solo (during bridge) 
D|-13-13-13-13-13-13-13-13-13-13-13-13-13-|-12-12-12-12-12-12-12-12-12-12-12-| 
A|----------------------------------------|----------------------------------| 
F|----------------------------------------|----------------------------------| 
C|----------------------------------------|----------------------------------| 
G|----------------------------------------|----------------------------------| 
C|----------------------------------------|----------------------------------| 

D|-8-8-8-8-8-8-8-8-8-8-8-8-8-8-8-8-8-8-8--|-10-10-10-10-10-10-10-10-10-10-10-| 
A|----------------------------------------|----------------------------------| 
F|----------------------------------------|----------------------------------| 
C|----------------------------------------|----------------------------------| 
G|----------------------------------------|----------------------------------| 
C|----------------------------------------|----------------------------------| 


Pre Chorus 
D|-----------------------------------| 
A|-----------------------------------| 
F|-----------------------------------| 
C|-----------------------------------| 
G|-----------------------------------| 
C|--0-0-10h12-0-0-0-10h12-0-0--------|  


Lead part 
D|-----------------------------------|-----------------------------------| 
A|-----------------------------------|-----------------------------------| 
F|----------------5------------------|----------------5------------------| 
C|------------------7----4/5--4/5----|------------------7----------4/5---| 
G|--5-----5-8-7-5-----------------5--|--5-----5-8-7-5------------------5-| 
C|-----------------------------------|-----------------------------------|  

D|-----------------------------------|-----------------------------------| 
A|-----------------------------------|-----------------------------------| 
F|----------------5------------------|----------------5------------------| 
C|------------------7----4/5--4/5----|------------------7----------------| 
G|--5-----5-8-7-5-----------------5--|--5-----5-8-7-5--------------------| 
C|-----------------------------------|-----------------------------------|  


Chorus 
Lyrics: To the west. To the west! 
Palm muted 
D|---------------------------------| 
A|---------------------------------| 
F|---------------------------------| 
C|---------------------------------| 
G|---------------------------------| 
C|-0-0-0-0-0-0-0-7-7-8-8-8-8-3-3-5-|  

D|---------------------------------| 
A|---------------------------------| 
F|---------------------------------| 
C|---------------------------------| 
G|---------------------------------| 
C|-0-0-0-0-0-0-0-7-7-8-8-8-8-10----|  


Palm muted 
D|------------------------------------|---------------------------------| 
A|------------------------------------|---------------------------------| 
F|------------------------------------|---------------------------------| 
C|------------------------------------|---------------------------------| 
G|--5----3h5--------5---3h5/8-10-7-8--|--5----3h5---------5---3h5-8-10--| 
C|----7-------7-7-----7---------------|----7-------7-7------7-----------|  



Outro 
D|------------------------------------| 
A|------------------------------------| 
F|------------------------------------| 
C|------------------------------------| 
G|--5----3h5--------5---3h5/8-10-7-8--| 
C|----7-------7-7-----7---------------|  

Lead part 
D|-----------------------------------|-----------------------------------| 
A|-----------------------------------|-----------------------------------| 
F|----------------5------------------|----------------5------------------| 
C|------------------7----4/5--4/5----|------------------7----------4/5---| 
G|--5-----5-8-7-5-----------------5--|--5-----5-8-7-5------------------5-| 
C|-----------------------------------|-----------------------------------|  

D|-----------------------------------|-----------------------------------| 
A|-----------------------------------|-----------------------------------| 
F|----------------5------------------|----------------5------------------| 
C|------------------7----4/5--4/5----|------------------7----------------| 
G|--5-----5-8-7-5-----------------5--|--5-----5-8-7-5--------------------| 
C|-----------------------------------|-----------------------------------|  


************************************ 

| /  Slide up 
| h  Hammer-on 
| p  Pull-off 
| ~  Vibrato 
| x  Dead note 

************************************ 
		  

Full key step upFull key step up
Half key step upHalf key step up
Half key step downHalf key step down
Full key step downFull key step down
auto scroll beats size up size down change color hide chords drawings
tab show chords e-chords YouTube Clip e-chords hide all tabs e-chords go to top tab

share