While She Sleeps

This Is The Six

While She Sleeps

tabs

by  VSWORLD

save to print version add songbook text version e-mail correct tuner
chordsukulelecavacokeyboardtabbassdrumsharmonicaflute Guitar Pro
close

there isn't a video lesson for this song

chords

This Is The Six

	  		


D|---------------------------------------------| 
A|---------------------------------------------| 
F|---------------------------------------------| 
C|-2--2--0--2--0--2-----------3----------------| 
G|-2--2--0--2--0--2-----------7----------------| 
C|-2--2--0--2--0--2--0-0-0-0-----0-0-0-0--1h4--| 

D|-----------------------------------------| 
A|-----------------------------------------| 
F|-----------------------------------------| 
C|-2--2--0--2--0--2------------------------| 
G|-2--2--0--2--0--2-------5----------7-----|  
C|-2--2--0--2--0--2--2h3-----2s3--3-----3--| 

D|---------------------------------------------| 
A|---------------------------------------------| 
F|---------------------------------------------| 
C|-2--2--0--2--0--2-----------3----------------| 
G|-2--2--0--2--0--2-----------7----------------| 
C|-2--2--0--2--0--2--0-0-0-0-----0-0-0-0--1h4--| 

D|---------------------------------------| 
A|---------------------------------------| 
F|---------------------------------------| 
C|-2--2--0--2--0--2----------------------| 
G|-2--2--0--2--0--2----------------------|  
C|-2--2--0--2--0--2--222--222--333--333--| 

D|---------------------------------------------| 
A|---------------------------------------------| 
F|---------------------------------------------| 
C|-2--2--0--2--0--2-----------3----------------| 
G|-2--2--0--2--0--2-----------7----------------| 
C|-2--2--0--2--0--2--0-0-0-0-----0-0-0-0--1h4--| 

D|----------------------------------------| 
A|----------------------------------------| 
F|----------------------------------------| 
C|-2--2--0--2--0--2-----------------------| 
G|-2--2--0--2--0--2------------5-------7--|  
C|-2--2--0--2--0--2--000--2h3-----2s3-----| 

D|---------------------------------------------| 
A|---------------------------------------------| 
F|---------------------------------------------| 
C|-2--2--0--2--0--2-----------3----------------| 
G|-2--2--0--2--0--2-----------7----------------| 
C|-2--2--0--2--0--2--0-0-0-0-----0-0-0-0--1h4--| 

D|---------------------------------------| 
A|---------------------------------------| 
F|---------------------------------------| 
C|-2--2--0--2--0--2----------------------| 
G|-2--2--0--2--0--2----------------------|  
C|-2--2--0--2--0--2--222--222--333--333--| 

D|---------------------------------------------|                   \ 
A|---------------------------------------------|                    \    
F|---------------------------------------------|                     \     
C|-2--2--0--2--0--2--------2--2--0--2--0--2----|                      |    
G|-2--2--0--2--0--2--------2--2--0--2--0--2----|                      | 
C|-2--2--0--2--0--2--------2--2--0--2--0--2----|                      | 
                                                                      | 
D|---------------------------------------------|                      | 
A|---------------------------------------------|                      | 
F|---------------------------------------------|                      | x2 
C|-3--3--0--3--0--3--------3--3--0--3--0--3----|                      | 
G|-3--3--0--3--0--3--------3--3--0--3--0--3----|                      | 
C|-3--3--0--3--0--3--------3--3--0--3--0--3----|                      | 
                                                                      | 
D|---------------------------------------------|  |----------------|  | 
A|---------------------------------------------|  |----------------|  | 
F|---------------------------------------------|  |-10-------------|  | 
C|-6--6--0--6--0--6--------6--6--0--6--0--6----|  |------16 times--|  | 
G|-6--6--0--6--0--6--------6--6--0--6--0--6----|  |--8-------------| / 
C|-6--6--0--6--0--6--------6--6--0--6--0--6----|  |----------------|/ 

D|---------------------------------------------| 
A|---------------------------------------------| 
F|---------------------------------------------| 
C|-2--2--0--2--0--2-----------3----------------| 
G|-2--2--0--2--0--2-----------7----------------| 
C|-2--2--0--2--0--2--0-0-0-0-----0-0-0-0--1h4--| 

D|----------------------------------------| 
A|----------------------------------------| 
F|----------------------------------------| 
C|-2--2--0--2--0--2-----------------------| 
G|-2--2--0--2--0--2------------5-------7--|  
C|-2--2--0--2--0--2--000--2h3-----2s3-----| 

D|---------------------------------------------| 
A|---------------------------------------------| 
F|---------------------------------------------| 
C|-2--2--0--2--0--2-----------3----------------| 
G|-2--2--0--2--0--2-----------7----------------| 
C|-2--2--0--2--0--2--0-0-0-0-----0-0-0-0--1h4--| 

D|----------------------------------| 
A|----------------------------------| 
F|----------------------------------| 
C|-2--2--0--2--0--2-----------------| 
G|-2--2--0--2--0--2-----------------|  
C|-2--2--0--2--0--2--222--222--333--| 

D|------------------------------------------|  \ 
A|------------------------------------------|   \ 
F|------------------------------------------|    | 
C|-2--2--0--2--0--2-------2--2--0--2--0--2--|    | x2 
G|-2--2--0--2--0--2-------2--2--0--2--0--2--|   / 
C|-2--2--0--2--0--2--3h6--2--2--0--2--0--2--|  / 

D|---------------------------------| 
A|---------------------------------| 
F|---------------------------------| 
C|-2-------0-------10-------0------| 
G|-2--x16--0--x16--10--x24--0--x8--|  
C|-2-------0-------10-------0------| 

D|-------------------------------------------------------| 
A|-------------------------------------------------------| 
F|-------------------------------------------------------| 
C|-------------------------------------------------------| 
G|-------------------------------------------------------|  
C|-2-2--2-2-2--2-2-2--2-2-2--2-0-0--0-0-0--0-0-0--0-0-0--| 

D|-----------------------------------------------------| 
A|-----------------------------------------------------| 
F|-------7---------7---------------9---------9---------| 
C|-----------------------x2------------------------x2--| 
G|--3-3-----3-3-3-----3-------5-5-----5-5-5-----5------|  
C|-----------------------------------------------------| 

D|------------------------------------------------| 
A|------------------------------------------------| 
F|--9h11p9------9-------------11-------12-----11--| 
C|----------12-----12--9s7h9------7-7------7------| 
G|------------------------------------------------|  
C|------------------------------------------------| 

D|----------------------------------------------| 
A|----------------------------------------------| 
F|--9h11p9------9-------------11-------9-----9--| 
C|----------12-----12--9s7h9------7-7-----7-----| 
G|----------------------------------------------|  
C|----------------------------------------------| 

D|----------------------------------------------------------------------| 
A|----------------------------------------------------------------------| 
F|--9h11p9------9-------------11-------12-----11----9--11--12--11v--9--7| 
C|----------12-----12--9s7h9------7-7------7----------------------------| 
G|----------------------------------------------------------------------|  
C|----------------------------------------------------------------------| 

Repeat this lick twice and 4 times I believe at the end of the song. 

Now repeat the INTRO riff. 

And now the heavy RIFF !  


D|--------------------------------------------------------------------------| 
A|--------------------------------------------------------------------------| 
F|--------------------------------------------------------------------------| 
C|-2--0--2--3--6-----------------------------2--0--2--3v----2--0--2---------| 
G|-2--0--2--3--6-----------------------------2--0--2--3v----2--0--2-let ring|  
C|-2--0--2--3--6---22--22--22--22--2222222---2--0--2--3v----2--0--2---------| 

You repeat the RIFF above 4 times. 

D|-------------------------------------------------------------| 
A|-------------------------------------------------------------| 
F|--9-------7-------9------------------------------------------| 
C|----x16-----x16-----x32-----------------------7----3----2----| 
G|--7-------5-------7---------------------------7----3----2----|  
C|-------------------------slide thingie here---7----3----2----| 

D|--------------------------------------------------------------| 
A|--------------------------------------------------------------| 
F|--------------------------------------------------------------| 
C|-7-------3-------2-------7-------3-------2--------------------| 
G|-7-x16---3-x16---2-x32---7-x16---3-x16---2-one-time-let-ring--|  
C|-7-------3-------2-------7-------3-------2--------------------| 

D|----------------------------| 
A|----------------------------| 
F|----------------------------|   Let these chords ring 
C|-2----0----10----10----0----| 
G|-2----0----10----10----0----|  
C|-2----0----10----10----0----| 

D|-------------------------------------------------------| 
A|-------------------------------------------------------| 
F|-------------------------------------------------------| 
C|-------------------------------------------------------| 
G|-------------------------------------------------------|  
C|-2-2--2-2-2--2-2-2--2-2-2--2-0-0--0-0-0--0-0-0--0-0-0--| 

D|-----------------------------------------------------| 
A|-----------------------------------------------------| 
F|-------7---------7---------------9---------9---------| 
C|-----------------------x2------------------------x2--| 
G|--3-3-----3-3-3-----3-------5-5-----5-5-5-----5------|  
C|-----------------------------------------------------| 

D|------------------------------------------------| 
A|------------------------------------------------| 
F|--9h11p9------9-------------11-------12-----11--| 
C|----------12-----12--9s7h9------7-7------7------| 
G|------------------------------------------------|  
C|------------------------------------------------| 

D|----------------------------------------------| 
A|----------------------------------------------| 
F|--9h11p9------9-------------11-------9-----9--| 
C|----------12-----12--9s7h9------7-7-----7-----| 
G|----------------------------------------------|  
C|----------------------------------------------| 

D|------------------------------------------------------------------------| 
A|------------------------------------------------------------------------| 
F|--9h11p9------9-------------11-------12-----11----9--11--12--11v--9--7--| 
C|----------12-----12--9s7h9------7-7------7------------------------------| 
G|------------------------------------------------------------------------|  
C|------------------------------------------------------------------------| 
		  

auto scroll beats size up size down change color hide chords drawings
tab show chords e-chords YouTube Clip e-chords hide all tabs e-chords go to top tab

share