Weezer

home > Weezer

Yellow Camaro Tab

Weezer

Difficulty: nolevelnolevel

tuner correct add songbook print version text version save to e-mail
chordsukulelecavacokeyboardtabbassdrumsharmonicsflute Guitar Pro
chords

Yellow Camaro

  		yellow camaro 
 
this is an unreleased song... 
 
it's by brian! HAHAHAHAAH 
 
 
--------------------| 
--------------------| 
------------------6-| 
------------------6-| 
-xxxxxxxxxxxxxxxx-4-| 
--------------------| 
 
chorus chords 
-------------|-------| 
-------------|-------| 
-7-6---------|-8-8-9-| 
-7-6-4-2-----|-------| 
-5-4-4-2-----|-------| 
-----2-0-----|-------| 
 
bridge 
---------| 
---------| 
-6-7-8-9-| 
-6-7-8-9-| 
-4-5-6-7-| 
---------| 
 
----------------------------------------------------| 
-------------------------------12----12----12-------| 
---8-9--11-11-9-11-9-11/13--13----13----13----13-11-| 
-6--------------------------------------------------| 
----------------------------------------------------| 
----------------------------------------------------| 
 
--------------------------------------| 
-14p12----12----------------------12b-| 
-------13----13p11-10-11-10-11-10-14b-| 
--------------------------------------| 
--------------------------------------| 
--------------------------------------| 
 

	  

Search Paypal
auto scroll beats size up size down change color hide chords drawings
tab show chords e-chords YouTube Clip e-chords hide all tabs e-chords go to top tab