Weezer

home > Weezer

Why Bother Tab

Weezer

Difficulty: ExpertExpert

tuner correct add songbook print version text version save to e-mail
chordsukulelecavacokeyboardtabbassdrumsharmonicsflute Guitar Pro
chords

Why Bother

  		 |----------------------------------|----------------------------------| 
|----------------------------------|----------------------------------| 
|----------------------------------|----------------------------------| 
|-2---2---2---2---6---6---6---6----|-7---7---7---7---X-X-9---9---X----| 
|-2---2---2---2---6---6---6---6----|-7---7---7---7---X-X-9---9---X----| 
|-0---0---0---0---4---4---4---4----|-5---5---5---5---X-X-7---7---X----| 
   
 
 voc1:    i       know i  should get next    to  you     'cause 
 
                                                            end fig. 1 
|----------------------------------|----------------------------------| 
|----------------------------------|----------------------------------| 
|-9---9---9---9--------------------|----------------------------------| 
|-9---9---9---9---6---6---6---6----|-7---7---7---7---X-X-9---9---X----| 
|-7---7---7---7---6---6---6---6----|-7---7---7---7---X-X-9---9---X----| 
|-----------------4---4---4---4----|-5---5---5---5---X-X-7---7---X----| 
  
 
      you got a   look        that   made    me  think   you're  cool 
 
gtr1&2: fig. 1 
voc1:but it's just sexual attraction 
     that's nothin' real is so i'd rather keep a-whackin' 
 
CHORUS: 
------- 
 
 gtr1&2: 
 fig. 2: (very staccatto) 
|----------------------------------|----------------------------------| 
|----------------------------------|----------------------------------| 
|-----------------6-------6--------|-2-------2-------4-------4--------| 
|-2-------2-------6-------6--------|-2-------2-------4-------4--------| 
|-2-------2-------4-------4--------|-0-------0-------2-------2--------| 
|-0-------0------------------------|----------------------------------| 
  . 
 
 voc1&2:  why     bo  -   ther?          'ss gon-na  hurt    me 
 
 
|----------------------------------|----------------------------------| 
|----------------------------------|----------------------------------| 
|-----------------6-------6--------|-2-------2-------4-------4--------| 
|-2-------2-------6-------6--------|-2-------2-------4-------4--------| 
|-2-------2-------4-------4--------|-0-------0-------2-------2--------| 
|-0-------0------------------------|----------------------------------| 
   
 
     it's gon-na  kill    when       you     de   -  sert    me 
 
 
|----------------------------------|----------------------------------| 
|----------------------------------|----------------------------------| 
|----------------------------------|----------------------------------| 
|-6---6---6-------6-------6--------|-7-------7-------7-------7--------| 
|-6---6---6-------6-------6--------|-7-------7-------7-------7--------| 
|-4---4---4-------4-------4--------|-5-------5-------5-------5--------| 
   
 
          this    hap-pened to me    twice   be  -   fo  -   re 
 
                                                            end fig. 2 
|----------------------------------|----------------------------------| 
|----------------------------------|----------------------------------| 
|----------------------------------|----------------------------------| 
|-9-------9-------9-------9--------|-9-------9-----------9---9--------| 
|-9-------9-------9-------9--------|-9-------9-----------9---9--------| 
|-7-------7-------7-------7--------|-7-------7-----------7---7--------| 
  . 
 
          won't   hap-pen to  me     a   -   ny      mo  -   re 
 
 
VERSE 2: 
-------- 
 
gtr1&2: fig 1, 2x 
voc. 1: i've known a lot of girls before 
        what's the harm in knowin' one more? 
        maybe we could even get together 
        maybe you could break my heart next summer 
 
{CHORUS} 
-------- 
(gtr1&2: fig 2) 
 
GUITAR SOLO: 
------------ 
 
gtr. 2: fig. 1, 1.5x 
gtr. 1: 
|----------|-12----------12----------12-------| 
|----------|---------12----------12-----------| 
|(9)////13-|----------------------------------| 
|----------|----------------------------------| 
|----------|----------------------------------| 
|----------|----------------------------------| 
   
 
|----------------------------------|----------------------------------| 
|-----------------14--14-----------|----------------------------------| 
|-12--12--12--12-------------------|-12--13--12--13--11--12--11-------| 
|----------------------------------|----------------------------------| 
|----------------------------------|----------------------------------| 
|----------------------------------|----------------------------------| 
  
 
 
|----------------------------------|----------------------------------| 
|----------------------------------|-12----------13----------14-------| 
|-9--11---9---11-------------------|----------------------------------| 
|---------------------9-------9----|---------14----------14-----------| 
|----------------------------------|----------------------------------| 
|----------------------------------|----------------------------------| 
   
                  ^^^^^^^^^^^^^^^^^ 
|----------------------------------| 
|-14--14--14--14//16---------------| 
|----------------------------------| 
|----------------------------------| 
|----------------------------------| 
|----------------------------------| 
  
 
 gtr. 1: 
 
|-18b(20)-----b(20)-------b(20)----|-----18--17--16-------------------| 
|----------------------------------|---------------------17--16-------| 
|----------------------------------|----------------------------------| 
|----------------------------------|----------------------------------| 
|----------------------------------|----------------------------------| 
|----------------------------------|----------------------------------| 
|  | 
|gtr. 2:                           |                                  | 
|                                  |                                  | 
|----------------------------------|----------------------------------| 
|----------------------------------|----------------------------------| 
|-9---9---9---13--13--13--13--13---|-14--14--14--16--16--16--16--16---| 
|----------------------------------|----------------------------------| 
|-7---7---7---11--11--11--11--11---|-12--12--12--14--14--14--14--14---| 
|----------------------------------|----------------------------------| 
   
 
 
  /\/\/\/\/\/\/\/\/\/\/\/\/\/\/\/\   /\/\/\/\/\/\/\/\/\/\/\/\/\/\/\/\ 
|----------------------------------|----------------------------------| 
|-17-------------------------------|/19-------------------------------| 
|----------------------------------|----------------------------------| 
|----------------------------------|----------------------------------| 
|----------------------------------|----------------------------------| 
|----------------------------------|----------------------------------| 
|  | 
|                                  |                                  | 
|                                  |                                  | 
|----------------------------------|----------------------------------| 
|----------------------------------|----------------------------------| 
|-9---9---9---9---11--11--11--11---|-6---6---6---6---8---8---8---8----| 
|----------------------------------|----------------------------------| 
|-7---7---7---7---9---9---9---9----|-4---4---4---4---6---6---6---6----| 
|----------------------------------|----------------------------------| 
   
 
 
  /\/\/\/\/\/\/\/\/\/\/\/\/\/\/\/\   /\/\/\/\/\/\/\/\ 
|----------------------------------|-----------------19\--------------| 
|-17-------------------------------|-17-------------------------------| 
|----------------------------------|----------------------------------| 
|----------------------------------|----------------------------------| 
|----------------------------------|----------------------------------| 
|----------------------------------|----------------------------------| 
|  | 
|voc. 1:                           |                 yeeeaaaahh!!!!!  | 
|                                  |                                  | 
|----------------------------------|----------------------------------| 
|----------------------------------|----------------------------------| 
|-8---8---8---8---9---9---9---9----|-9---9---9---9---11--11--11--11---| 
|----------------------------------|----------------------------------| 
|-6---6---6---6---7---7---7---7----|-7---7---7---7---9---9---9---9----| 
|----------------------------------|----------------------------------| 
   
 voc. 2:                                             yeeeaaaahh!!!!! 
 
VERSE 3: 
-------- 
 
gtr1&2: fig 1, 2x 
voc. 1: it's a cryin' shame i'm all alone 
        not with you, nor her, nor anyone 
        won't you knock me on my head 
        crack it open let me outta here 
 
{CHORUS} 
-------- 
(gtr1&2: fig 2) 
pickup to OUTRO: on 4th beat of last 
                 bar of CHORUS, voc. 2: 
                 "why-" 
 
OUTRO: 
------ 
 
gtr1&2: 
 
|----------------------------------|----------------------------------| 
|----------------------------------|----------------------------------| 
|-----------------6-------6--------|-2-------2-------4-------4--------| 
|-2-------2-------6-------6--------|-2-------2-------4-------4--------| 
|-2-------2-------4-------4--------|-0-------0-------2-------2--------| 
|-0-------0------------------------|----------------------------------| 
  
v1        why     bo   -  ther?         it's gonna  hurt    me 
v2bo  -   ther?       'ss gonna      hurt    me         'ss gonna 
 
 
|----------------------------------|----------------------------------| 
|----------------------------------|----------------------------------| 
|-6-------6------------------------|----------------------------------| 
|-6-------6-------6-------6--------|-7-------7-------9-------9--------| 
|-4-------4-------6-------6--------|-7-------7-------9-------9--------| 
|-----------------4-------4--------|-5-------5-------7-------7--------| 
   
          when  - ev -er  ya            'ss  gon-na  huurt   meee 
  kill    when            you de  -  sert    me              why 
 
 
|----------------------------------|----------------------------------| 
|----------------------------------|----------------------------------| 
|-----------------6-------6--------|-2-------2-------4-------4--------| 
|-2-------2-------6-------6--------|-2-------2-------4-------4--------| 
|-2-------2-------4-------4--------|-0-------0-------2-------2--------| 
|-0-------0------------------------|----------------------------------| 
   
         why     bo   -  ther?          it's gonna  hurt    me 
  bo  -   ther?          'ss gonna   hurt    me 
 gtr. 1: 
 half time                    
|----------------------------------|----------------------| 
|----------------------------------|----------------------| 
|-----9----------------------------|----------------------| 
|-----9-------6-------7-------9----|----------------------| 
|-----7-------6-------7-------9----|----------------------| 
|-------------4-------5-------7----|-12\\\\p0-muffle------| 
|                                                         | 
|     why bother 'ss gonna hurt mee|                      | 
|gtr. 2:                           |                      | 
|----------------------------------|----------------------| 
|----------------------------------|----------------------| 
|-----9----------------------------|----------------------| 
|-----9-------6-------7-------9----|-2--------------------| 
|-----7-------6-------7-------9----|-2--------------------| 
|-------------4-------5-------7----|-0--------------------| 
   
      why bother 'ss gonna hurt me 
 

	  

Search Paypal
auto scroll beats size up size down change color hide chords drawings
tab show chords e-chords YouTube Clip e-chords hide all tabs e-chords go to top tab