Weezer

home > Weezer

Take Control Tab

Weezer

Difficulty: nolevelnolevel

tuner correct add songbook print version text version save to e-mail
chordsukulelecavacokeyboardtabbassdrumsharmonicsflute Guitar Pro
chords

Take Control

  		Any questions or comments, please e-mail me, talk to me on AIM, or PM me on  
the message board. 
 
e-mail - [email protected] 
AIM - SantaCruz476 
Message Board Name - SantaCruz476 
 
Intro 
     		  (repeated 2x)         (only 1st time) 
Eb|------------------------------------------||--------- 
Bb|------------------------------------------\/--------- 
Gb|--2--2--0-2--0-2--0-2--0-2--0-2--0-5--2--0-1--------- 
Db|--2--2--0-2--0-2--0-2--0-2--0-2--0-5--2-------------- 
Ab|----------------------------------------------------- 
Eb|----------------------------------------------------- 
 
Verse (Same as intro, except palm muted, 4x) 
 
Chorus 
 
Eb|----------------------------------------------------- 
Bb|----------------------------------------------------- 
Gb|--55555555-77777777-55555555-77777777---------------- 
Db|--55555555-77777777-55555555-77777777-77777777------- 
Ab|--33333333-55555555-33333333-55555555-77777777------- 
Eb|--------------------------------------55555555------- 
 
 
Eb|----------------------------------------------------- 
Bb|----------------------------------------------------- 
Gb|-----------5555555----------------------------------- 
Db|--55555555-5555555-5-55-55-5------------------------- 
Ab|--55555555-3333333-5-55-55-5------------------------- 
Eb|--33333333---------3-33-33-3------------------------- 
 
Right back to Intro 1x 
 
Verse 4x 
 
Chorus 1x 
 
2nd Chorus 
 
Eb|----------------------------------------------------- 
Bb|----------------------------------------------------- 
Gb|--------------------------5-55-55-------------------- 
Db|--3-33-33-3-33-33-3-33-33-5-55-55-5-55-55-5---------- 
Ab|--3-33-33-3-33-33-3-33-33-3-33-33-5-55-55-5---------- 
Eb|--1-11-11-1-11-11-1-11-11---------3-33-33-3---------- 
 
Intro 1x 
 
Solo 
 
Eb|----------------------------------------------------- 
Bb|----------------------------------------------------- 
Gb|----------9------------------------------------------ 
Db|--10-9-10--10-9-10-9--9------------------------------ 
Ab|--------------------12-12-10----10--10----10-12--12-- 
Eb|----------------------------12----12----12----------- 
 
Eb|----------------------------------------------------- 
Bb|----------------------------------------------------- 
Gb|------------------------------9--9--9--10-9-10-9--12- 
Db|--9--9----9-10--10--12-10-12---12---------------12--- 
Ab|---12---12------------------------------------------- 
Eb|----------------------------------------------------- 
 
Eb|----------------------------------------------------- 
Bb|----------------------------------------------------- 
Gb|--10-9-10-9--9--------------------------------------- 
Db|-----------12-12-10-12-10-9-10-9--9-10---9-10-------- 
Ab|--------------------------------12----12-----12-10-12 
Eb|----------------------------------------------------- 
 

	  

Search Paypal
auto scroll beats size up size down change color hide chords drawings
tab show chords e-chords YouTube Clip e-chords hide all tabs e-chords go to top tab