Weezer

home > Weezer

Superstar Tab

Weezer

Difficulty: nolevelnolevel

tuner correct add songbook print version text version save to e-mail
chordsukulelecavacokeyboardtabbassdrumsharmonicsflute Guitar Pro
chords

Superstar

  		Standard Tuning 
 
Powerchords, 1/2 down? 
 
 
p= pull off 
 
Intro 4x 
E|---------------|---------------|---------------|---------------| 
B|---------------|---------------|---------------|---------------| 
G|---3/4/5-------|---3/4/5-------|---3/4/5-------|---3/4/5-------| 
D|-3-3/4/5-3p-3p-|-3-3/4/5-3p-3p-|-3-3/4/5-3p-3p-|-3-3/4/5-3p-3p-| 
A|-3-1/2/3-3p-3p-|-3-1/2/3-3p-3p-|-3-1/2/3-3p-3p-|-3-1/2/3-3p-3p-| 
e|-1-------1p-1p-|-1-------1p-1p-|-1-------1p-1p-|-1-------1p-1p-| 
 
 
Verse 4x total 
E|---------------|---------------|---------------|---------------| 
B|---------------|---------------|---------------|---------------| 
G|---3/4/5-------|---3/4/5-------|---3/4/5-------|---3/4/5-------| 
D|-3-3/4/5-3p-3p-|-3-3/4/5-3p-3p-|-3-3/4/5-3p-3p-|-3-3/4/5-3p-3p-| 
A|-3-1/2/3-3p-3p-|-3-1/2/3-3p-3p-|-3-1/2/3-3p-3p-|-3-1/2/3-3p-3p-| 
e|-1-------1p-1p-|-1-------1p-1p-|-1-------1p-1p-|-1-------1p-1p-| 
	  It use ... 
	  Of rockin' .. 
	  They'd strut... 
	  All I know how to do is sing...		  (and i) 
 
 
Chorus 3x total 
E|-----------------| 
B|-----------------| 
B|-7-7-5-5-3-3-3-3-| 
D|-7-7-5-5-3-3-3-3-| 
A|-5-5-3-3-1-1-1-1-| 
e|-----------------| 
   don't do that so well... 
   I never summon things from hell... 
   I'm just a regular white guy Who's afraid to 
 
 
        3x 
E|-------------------------| 
B|-------------------------| 
B|-5p-5p-5p-5p-3p-3p-3p-3p-| 
D|-5p-5p-5p-5p-3p-3p-3p-3p-| 
A|-3p-3p-3p-3p-1p-1p-1p-1p-| 
e|-------------------------| 
   rock	    so hard     I'd 
   break    my guard    And 
   give     my-self     away... 
 

	  

Search Paypal
auto scroll beats size up size down change color hide chords drawings
tab show chords e-chords YouTube Clip e-chords hide all tabs e-chords go to top tab