Weezer

home > Weezer

Slob Tab

Weezer

Difficulty: nolevelnolevel

tuner correct add songbook print version text version save to e-mail
chordsukulelecavacokeyboardtabbassdrumsharmonicsflute Guitar Pro
chords

Slob

  		Eb tuning 
SLOB tABBED by  MARRENIUS 
THE SOLO I LIKE THE MOST 
NO WORDS SORRY 
Intro- 
---------------------------------------- 
---------6--------------6---------------- 
--7--------7---7--7-------7---7---- 
----7--------7------7-------7--------- 
------5---------------5------------- 
--------------------------------------- 
verse 
--------------------------------------------------------------------------------- 
---------6---------------6------------------5---------------5-------------------- 
--7---------7-----7--------7---7----6--------6---6-----------6---6------------- 
----7---------7------7--------7--------7--------7-------7-------7--------------- 
------5----------------5-----------------7----------------7---------------------- 
--------------------------------------------------------------------------------- 
 
---------------------------------------------------------------------------------- 
---------6---------------6----------------6--------------6------------------------ 
-----------7---7-----------7---7-----------7---7---------7-- -7------------------ 
--8----------8----8----------8-------7--------7-----7-------7-------------------- 
----8---------------8------------------5---------------5-------------------------- 
------6---------------6----------------------------------------------------------- 
 
Pre Chorus- 
------------------------------------------------------------------------------ 
-------------------------------------------------------------------------- 
--10-10-10-10-10-10-10-10-10-5-5-5-5-5-5-5-5---------------------- 
--10-10-10-10-10-10-10-10-10-5-5-5-5-5-5-5-5--8-8-8-8-8-8-8-8/---x3(SLIDE) 
--8--8--8--8--8---8-8--8--8--3-3-3-3-3-3-3-3--8-8-8-8-8-8-8-8--- 
-------------------------------  -------------6-6-6-6-6-6-6-6----- 
 
ChoruS 
 				                  
                                                repeat   again on 2nd and 3rd chorus 
-----------------------------------------------------/----------------------------\ 
-----------------------------------------------------6-6-6-6-6-6-6-6-6------------- 
----------------------------- -----5-5-5-5-5-5-5-5---7-7-7-7-7-7-7-7-7----------- 
--7-7-7-7-7-7-7-7--8-8-8-8-8-8-8-8-5-5-5-5-5-5-5-5---7-7-7-7-7-7-7-7-7---7-7-7-7-7-7- 
--7-7-7-7-7-7-7-7--6-6-6-6-6-6-6-6-3-3-3-3-3-3-3-3---5-5-5-5-5-5-5-5-5---7-7-7-7-7-7- 
-5-5-5-5-5-5-5-5--6-6-6-6-6-6-6-6--------------------5-5-5-5-5-5-5-5-5---5-5-5-5-5-5- 
   
Solo- 
Eb :------------------------------------------------------------------------------ 
Bb :15b--15-17-14--12-14-12b----13-------------------------------------- 
Gb :---------------------------------14-----12--12-14-12-10-7--------------- 
Db :------------------------------------------------------------------------------ 
Ab :----------------------------------------------------------------------------- 
Eb :------------------------------------------------------------------------------ 
 
 
how the song goes: 
intro  
verse 
chorus 
verse 
pre chorus 
chorus 
intro 
solo 
pre chorus 
chorus  
intro 
    then do this to fiish (JUST FOR THE HECK OF IT) 
------------------------------------------------------------------------ 
------------------------------------------------------------------------ 
------------------------------------------------------------------------ 
---9-------9--10--9---7---5(MAYBE)------------------------------- 
-9----------------------------------------------------------------------- 
------------------------------------------------------------------------ 
 

	  

Full key step upFull key step up
Half key step upHalf key step up
Half key step downHalf key step down
Full key step downFull key step down
Search Paypal
auto scroll beats size up size down change color hide chords drawings
tab show chords e-chords YouTube Clip e-chords hide all tabs e-chords go to top tab