Weezer

home > Weezer

Possibilities Tab

Weezer

Difficulty: nolevelnolevel

tuner correct add songbook print version text version save to e-mail
chordsukulelecavacokeyboardtabbassdrumsharmonicsflute Guitar Pro
chords

Possibilities

  		 
============ 
Intro/Chorus 
============ 
 
e|---------------------------------------------------------------------------|  
B|---------------------------------------------------------------------------|  
G|--8-8-8-8-8-8-8-8----------------------------------------------------------|  
D|--8-8-8-8-8-8-8-8--8-8-8-8-8-8-8-8-----------------------------------------|  
A|--6-6-6-6-6-6-6-6--8-8-8-8-8-8-8-8-----------------------------------------|  
E|-------------------6-6-6-6-6-6-6-6-----------------------------------------|  
  (3x)Give it all way....Depois 
 
 
e|---------------------------------------------------------------------------|  
B|---------------------------------------------------------------------------|  
G|--7-7-7-7-7-7-7-7-7-7-7-7-7-7-7-7------------------------------------------|  
D|--7-7-7-7-7-7-7-7-7-7-7-7-7-7-7-7------------------------------------------|  
A|--5-5-5-5-5-5-5-5-5-5-5-5-5-5-5-5------------------------------------------|  
E|---------------------------------------------------------------------------|  
 
===== 
Verso 
===== 
  
e|---------------------------------------------------------------------------|  
B|---------------------------------------------------------------------------|  
G|-------------------7-7-7-7-7-7-7-7--9-9-9-9-9-9-9-9--5-5-5-5-5-5-5-5-------|  
D|--5-5-5-5-5-5-5-5--7-7-7-7-7-7-7-7--9-9-9-9-9-9-9-9--5-5-5-5-5-5-5-5-------|  
A|--5-5-5-5-5-5-5-5--5-5-5-5-5-5-5-5--7-7-7-7-7-7-7-7--3-3-3-3-3-3-3-3-------|  
E|--3-3-3-3-3-3-3-3----------------------------------------------------------|  
 
  take you home with me in your arms  
e|---------------------------------------------------------------------------|  
B|---------------------------------------------------------------------------|  
G|---------------------5-5-5-5-5-5-5-5----7-7-7-7-7-7-7-7--------------------|  
D|--5-5-5-5-5-5-5-5----5-5-5-5-5-5-5-5----7-7-7-7-7-7-7-7--------------------|  
A|--5-5-5-5-5-5-5-5----3-3-3-3-3-3-3-3----5-5-5-5-5-5-5-5--------------------|  
E|--3-3-3-3-3-3-3-3----3-3-3-3-3-3-3-3----5-5-5-5-5-5-5-5--------------------|  
 
==== 
Solo 
==== 
 
 
e|---------------------------------------------------------------------------|  
B|-8-8-----7-7~--8-8-8-10-8~~---12-12-12-12-13-12---12-12-12-12-13-12--------|  
G|-----9-7-------------------------------------------------------------------|  
D|---------------------------------------------------------------------------|  
A|---------------------------------------------------------------------------|  
E|---------------------------------------------------------------------------|  
 
e|--------------12p10----10-10-10-10--12p10----------------------------------|  
B|--10-10-10-10-------12--------------------12h13~~~-------------------------|  
G|---------------------------------------------------------------------------|  
D|---------------------------------------------------------------------------|  
A|---------------------------------------------------------------------------|  
E|---------------------------------------------------------------------------|  
 
===== 
Outro 
===== 
 
e|---------------------------------------------------------------------------|  
B|---------------------------------------------------------------------------|  
G|------------------5-5-5-5-5-5-5-5-------------------7-7-7-7-7-7-7-7--------|  
D|-5-5-5-5-5-5-5-5--5-5-5-5-5-5-5-5--7-7-7-7-7-7-7-7--7-7-7-7-7-7-7-7--------|  
A|-5-5-5-5-5-5-5-5--3-3-3-3-3-3-3-3--7-7-7-7-7-7-7-7--5-5-5-5-5-5-5-5--------|  
E|-3-3-3-3-3-3-3-3-------------------5-5-5-5-5-5-5-5-------------------------|  
 
e|---------------------------------------------------------------------------|  
B|---------------------------------------------------------------------------|  
G|------------------9-9-9-9-9-9-9-9-------------------7-7-7-7-7-7-7-7--------|  
D|-9-9-9-9-9-9-9-9--9-9-9-9-9-9-9-9--7-7-7-7-7-7-7-7--7-7-7-7-7-7-7-7--------|  
A|-9-9-9-9-9-9-9-9--7-7-7-7-7-7-7-7--7-7-7-7-7-7-7-7--5-5-5-5-5-5-5-5--------|  
E|-7-7-7-7-7-7-7-7-------------------5-5-5-5-5-5-5-5-------------------------|  
 
e|---------------------------------------------------------------------------|  
B|---------------------------------------------------------------------------|  
G|------------------5---5---5---5--------------------------------------------|  
D|-5-5-5-5-5-5-5-5--5---5---5---5--5-----------------------------------------|  
A|-5-5-5-5-5-5-5-5--3---3---3---3--5-----------------------------------------|  
E|-3-3-3-3-3-3-3-3-----------------3-----------------------------------------|  
 
 
_______________________________________________________ 
Contribuição: Eduardo Nunes Cardozo(eduardorecal[email protected]) 
	  

Search Paypal
auto scroll beats size up size down change color hide chords drawings
tab show chords e-chords YouTube Clip e-chords hide all tabs e-chords go to top tab