Weezer

home > Weezer

Mo Beats Tab

Weezer

Difficulty: nolevelnolevel

tuner correct add songbook print version text version save to e-mail
chordsukulelecavacokeyboardtabbassdrumsharmonicsflute Guitar Pro
chords

Mo Beats

  		riff 1 is played twice thru with riff 2 
 
riff 2 is also the verse and chorus 
on the verse, play it regular 
on the chorus, play each note several times 
 
there is a synthesizer in the song that shreds,  
it is =not= guitar. i attempted at tabbing it. 
 
 
riff 1 
---------------------| 
---------------------| 
-13/12--15-17--18-15-| 
---------------------| 
---------------------| 
---------------------| 
 
riff 2 
---------------------| 
---------------------| 
---------------------| 
---------3-5-5---7-3-| 
-5-5---5-1-3-3---5-1-| 
-3-3---3-------------| 
 
synthesizer 
-15-|-15p13p12-----------| 
----|----------15-15p12--| 
----|--------------------| 
----|--------------------| 
----|--------------------| 
----|--------------------| 
 
riff 3  
---------------------| 
---------------------| 
-7-7---8-8-7-7-------| 
-7-7---8-8-7-7-------| 
-5-5---6-6-5-5-------| 
---------------------| 
 
synthesizer 
-9p7p6---------------| 
-------9p6-----------| 
---------------------| 
---------------------| 
---------------------| 
---------------------| 
 
solo 
------------------------------| 
------------------------------| 
------------------------------| 
-/12----10-10-10-10-10-10-10b-| 
------------------------------| 
------------------------------| 
 
------------------------------------------------| 
------------------------------------------------| 
-----------------10-12-10-----------------------| 
------8h10-10/12----------12-10--10-10-12-10----| 
-8h10----------------------------------------10-| 
------------------------------------------------| 
 
----------------------------------------------------------------------------------| 
----------------------------------------------------20-20-18-18-20-20-18-20-20-20-| 
-16-16-14-14-16-16-14-14-16-16-18-18-14-11-12-------------------------------------| 
-17-17-15-15-17-17-15-15-17-17-19-19-15-12----------------------------------------| 
----------------------------------------------13----------------------------------| 
-------------------------------------------------15-------------------------------| 
 
riff 4 
-------------------------| 
-------------------------| 
-------------------------| 
-------------------------| 
-5-5-7-7-8-8-10-10-12-12-| 
-3-3-5-5-6-6--8--8-10-10-| 
 

	  

Search Paypal
auto scroll beats size up size down change color hide chords drawings
tab show chords e-chords YouTube Clip e-chords hide all tabs e-chords go to top tab