Weezer

home > Weezer

Keep Fishing Tab

Weezer

Difficulty: nolevelnolevel

tuner correct add songbook print version text version save to e-mail
chordsukulelecavacokeyboardtabbassdrumsharmonicsflute Guitar Pro
chords

Keep Fishing

Year: 2002 -

(Rivers Cuomo)

  		
Intro/verse/outro  
e|---------------------|  
b|---------------------|  
g|-----------9-9-9-9-x-|  
d|-9-9-9-9-x-9-9-9-9-x-|  
a|-9-9-9-9-x-7-7-7-7-x-|  
e|-7-7-7-7-x-----------|  
  
pre-chorus  
e|---------------------|  
b|---------------------|  
g|-----------6-6-6-6-x-|  
d|-6-6-6-6-x-6-6-6-6-x-|  
a|-6-6-6-6-x-4-4-4-4-x-|  
e|-4-4-4-4-x-----------|  
chorus  
e|-----------------------------------------|  
b|-----------------------------------------|  
g|-------------------4-4-x-----------------|  
d|-9-9-x-6-6-x-2-2-x-4-4-x-4-4-4-4-4-4-4-4-|  
a|-9-9-x-6-6-x-2-2-x-2-2-x-4-4-4-4-4-4-4-4-|  
e|-7-7-x-4-4-x-0-0-x-------2-2-2-2-2-2-2-2-|  
  
chorus guitar 2    |2nd time|  
e|-----------------|--------|  
b|-------12---11---|--------|  
g|-11-13----13---11|--9--8--|  
d|-----------------|--------|  
a|-----------------|--------|  
e|-----------------|--------|  
  
bridge  
e|---------------------------------|  
b|---------------------------------|  
g|-----------------4-4-4-4-4-4-4-4-|  
d|-2-2-2-2-2-2-2-2-4-4-4-4-4-4-4-4-|  
a|-2-2-2-2-2-2-2-2-2-2-2-2-2-2-2-2-|  
e|-0-0-0-0-0-0-0-0-----------------|  
  
bridge cont.  
e|---------------------------------------------------------------------------------|  
b|---------------------------------------------------------------------------------|  
g|-----------------4-4-4-4-----------------4-4-4-4---------------------------------|  
d|-2-2-2-2-2-2-2-2-4-4-4-4-6-6-6-6-2-2-2-2-4-4-4-4-4-4-4-4-4-4-4-4-4-4-4-4-4-4-4-4-|  
a|-2-2-2-2-2-2-2-2-2-2-2-2-6-6-6-6-2-2-2-2-2-2-2-2-4-4-4-4-4-4-4-4-4-4-4-4-4-4-4-4-|  
e|-0-0-0-0-0-0-0-0---------4-4-4-4-0-0-0-0---------2-2-2-2-2-2-2-2-2-2-2-2-2-2-2-2-|  
  
bridge guitar 2  
e|-----------------|  
b|-4-2-------------|  
g|-----1-4-3-------|  
d|-----------4-2-0-|  
a|-----------------|  
e|-----------------|  
  
solo  
e|--------------------------------------------------|  
b|-9-7-----9-7-9-7-6h7-12-12-10-12----12----12------|  
g|-9-7-----------------------------11----10----9-8^-|  
d|-----9-7------------------------------------------|  
a|--------------------------------------------------|  
e|--------------------------------------------------|  
  
ending chord  
e|---|  
b|---|  
g|---|  
d|-9-|  
a|-9-|  
e|-7-|  
  
intro (2x acoustic, 2x electric)  
verse (2x pm)  
pre-chorus (2x pm)  
chorus (2x)  
verse (2x pm)  
pre-chorus (2x pm)  
chorus (2x)  
bridge (2x)  
bridge cont. (1x)  
solo (1x)  
pre-chorus (2x pm)  
chorus (2x)  
bridge (2x)  
bridge cont. (1x)  
verse (2x pm)  
outro (8x)  
ending chord (1x)  
  
lyrics:  
you'll never be  
a better kind  
if you don't leave  
the world behind (the world behind)  
waste my days (waste my days)  
drown aways (drown aways)  
it's just the thought of you in love with someone else  
it breaks my heart to see you hangin' from a shelf  
you'll never do  
the things you want  
if you don't move  
and get a job (and get a job)  
waste my days (waste my days)  
drown aways (drown aways)  
it's just the thought of you in love with someone else  
it breaks my heart to see you hangin' from a shelf  
oh girl, when i'm in love with you (doo-wah)  
keep fishin' if you feel it's true (doo-wah)  
there's nothing much that we can do  
to save you from yourself  
waste my days (waste my days)  
drown aways (drown aways)  
it's just the thought of you in love with someone else  
it breaks my heart to see you hangin' from a shelf  
oh girl, when i'm in love with you (doo-wah)  
keep fishin' if you feel it's true (doo-wah)  
there's nothing much that we can do  
to save you from yourself  
you'll never do  
the things you want  
if you don't move  
and get a job (and get a job)  
waste my days (and get a job)  
waste my days (and get a job)  
waste my days (and get a job)  
waste my days (and get a job)  
(waste my days) oh  
(waste my days) oh-hoo!  
(waste my days) oh  
(waste my days) oh-hoo!  
waste my days  

	  

Search Paypal
auto scroll beats size up size down change color hide chords drawings
tab show chords e-chords YouTube Clip e-chords hide all tabs e-chords go to top tab