Weezer

home > Weezer

Keep Fishing Bass Tab

Weezer

Difficulty: nolevelnolevel

by Seitoshi

tuner correct add songbook print version text version save to e-mail
chordsukulelecavacokeyboardtabbassdrumsharmonicsflute Guitar Pro
chords

Keep Fishing

Year: 2002 -

(Rivers Cuomo)

  		e-mail:[email protected] 

Tuning: I'm guessing standard, but I could be wrong 

Intro (with drums) played very fast 
G----------------------------- 
D----------------------------- 
A---------5-3--------------- 
E--030-5-------------------- 

Verse ("You'll never be..") 
G---------------------------------------------------------- 
D---------------------------------------------------------- 
A----------------7-7-7-0-7-0--------------4-4-4-0-4-0 
E---7-7-7-0-7-0--------------4-4-4-0-4-0-------------- 

Verse II ("Its just the thought of you..") 
G---------------------------------------- 
D---------------------------------------- 
A-2-22-------------2-22-------------- 
E-------4-44--0-00------2-22-------- 

^^ you can make your own little fill at the end of that 

Chorus ("O Girl when im in love with youŠ.") 
G------------------------------------------------- 
D------------------------------------------------- 
A------------22222222-------------22222222 
E-00000000------------00000000------------
	  

Search Paypal
auto scroll beats size up size down change color hide chords drawings
tab show chords e-chords YouTube Clip e-chords hide all tabs e-chords go to top tab