Weezer

home > Weezer

In The Garage Tab

Weezer

Difficulty: nolevelnolevel

tuner correct add songbook print version text version save to e-mail
chordsukulelecavacokeyboardtabbassdrumsharmonicsflute Guitar Pro
chords

In The Garage

  		  Transcribed by: Steven Gross 
 
  Tuned down 1/2 step 
 
	 
Intro (Guitar 1) - acoustic: 
E  :---------------------------------0--------------------------| 
B  :--0-----3---------------0h1---------------------------------| 
G  :-----0-----0---2--------------2-----2--0--------0-----------| 
D  :------------------4-----------------------0--2--------------| 
A  :---------------5-----5--0-----------------------------------| 
E  :--3------------------------------------0--------------------| 
 
    ------------------------------------------------------------| 
    -0-----3-----------0----------------------------------------| 
    ----0-----0--2--------2--0-----0-----0----------------------| 
    ----------------4-----------2-----0-------------------------| 
    -------------5-----------3-----2----------------------------| 
    -3-----------------------------------3----------------------| 
 
Verse 1 (Guitar 1) - mainly distorted bass: 
    ------------------------------------------------------------| 
    ------------------------------------------------------------| 
    -5--5--5--5--5--5--7--7--9--9--9--9--9--9---5--5--5--5--5--5| 
    -5--5--5--5--5--5--7--7--9--9--9--9--9--9---5--5--5--5--5--5| 
    -3--3--3--3--3--3--5--5--7--7--7--7--7--7---3--3--3--3--3--3| 
    ------------------------------------------------------------| 
     
    ------------------------------------------------------------| 
    ------------------------------------------------------------| 
    -7--7--9--9\-2--2--2--2--5--5--5--5--5--5--7-7--------------| 
    -7--7--9--9\-2--2--2--2--5--5--5--5--5--5--7-7--------------| 
    -5--5--7--7\-2--2--2--2--3--3--3--3--3--3--5-5--------------| 
    -------------0--0--0--0-------------------------------------| 
 
    - Guitar 2 enters here: 
    ------------------------------------------------------------| 
    ------------------------------------------------------------| 
    --------------------5--5--5----------------5--5--5----------| 
    --5--5--5--5--5--5--5--5--5--5--5--5--5----5--5--5--5--5----| 
    --3--3--3--3--3--3--3--3--3--5--5--5--5----3--3--3--5--5----| 
    --3--3--3--3--3--3-----------3--3--3--3-------------3--3----| 
 
    ------------------------------------------------------------| 
    -------8--------8-----------8--------8----------------------| 
    -7\-------7--------7--7\-------7--------7-----7-------------| 
    -7\-2--------9--------7\-2--------9--------9----------------| 
    -5\-2-----------------5\-2----------------------------------| 
    ----0--------------------0----------------------------------| 
 
Chorus (Guitar 1 & 2): 
    ------------------------------------------------------------| 
    ------------------------------------------------------------| 
    --------------7--7--7--7--2--2--2--2------------------------| 
    --5--5--5--5--7--7--7--7--2--2--2--2--2--2--2--2--5--5--5--5| 
    --5--5--5--5--5--5--5--5--0--0--0--0--2--2--2--2--5--5--5--5| 
    --3--3--3--3--------------------------0--0--0--0--3--3--3--3| 
 
    -----------------------------|*-----------------------------| 
    -----------------------------|*-----------------------------| 
    --7--7--7--7--5--5--4\-2-----|*-2----2----------------------| 
    --7--7--7--7--5--5--4\-2--5--|*-2----2----5-----------------| 
    --5--5--5--5--3--3--2\-0--5--|*-0----0----5-----------------| 
    --------------------------3--|*-----------3-----------------| 
 
Solo 1 (Guitar 1, Guitar 2 plays intro over this): 
    ------------------------------------------------------------| 
    --0--3------------------------------------------------------| 
    --------2--2/-4/-5/-9-/4vv--4/-7\-2--2/-4--0--0--0----------| 
    ------------------------------------------------------------| 
    ------------------------------------------------------------| 
    ------------------------------------------------------------| 
 
Verse 2 (This is all bass, but Guitar 1 can play it P.M.): 
    ------------------------------------------------------------| 
    ------------------------------------------------------------| 
    --5--5--5--5--5--5--7--7---------------------5--5--5--5--5--| 
    --5--5--5--5--5--5--7--7--2--2--2--2--2--2---5--5--5--5--5--| 
    --3--3--3--3--3--3--5--5--2--2--2--2--2--2---3--3--3--3--3--| 
    --------------------------0--0--0--0--0--0------------------| 
 
    ------------------------------------------------------------| 
    ------------------------------------------------------------| 
    5--7--7--------------------5--5--5--5--5--5--7-7------------| 
    5--7--7--2--2--2--2--2--2--5--5--5--5--5--5--7-7--5--5--5--5| 
    3--5--5--2--2--2--2--2--2--3--3--3--3--3--3--5-5--5--3--3--3| 
    ---------0--0--0--0--0--0-------------------------3--3--3--3| 
 
		- Guitar 1 & 2 enter here (at *): 
    ----------------------------------------------|-------------| 
    ----------------------------------------------|-------8-----| 
    -----------5--5--5--------------5--5--5-------|-7\-------7--| 
    --5--5--5--5--5--5-*5--5--5--5--5--5--5--5--5-|-7\-2--------| 
    --3--3--3--3--3--3--5--5--5--5--3--3--3--5--5-|-5\-2--------| 
    --3--3--3-----------3--3--3--3-----------3--3-|----0--------| 
 
    ------------------------------------------------------------| 
    -----8-----------8--------8---------------------------------| 
    --------7--7\-------7--------7-----7------------------------| 
    --9--------7\-2--------9--------9---------------------------| 
    -----------5\-2---------------------------------------------| 
    --------------0---------------------------------------------| 
 
Solo 2 (Guitar 1): 
    ------------------------------------------------------------| 
    --3/-5--5--5/-7/-9/-12/----14/-15/-16/-17/----19vvv---3/-5--| 
    ------------------------12-----------------18---------------| 
    ------------------------------------------------------------| 
    ------------------------------------------------------------| 
    ------------------------------------------------------------| 
 
    ------------------------------------------------------------| 
    5--5/-7/-9/-18\-/-17\-/-19vvvv------------------------------| 
    ------------------------------------------------------------| 
    ------------------------------------------------------------| 
    ------------------------------------------------------------| 
    ------------------------------------------------------------| 
 
    ------------------------------------------------------------| 
    --3/-5--5--5/-7/--8/-15--13--12h13p12----------15--13-------| 
    ---------------------------------------14--12---------------| 
    ------------------------------------------------------------| 
    ------------------------------------------------------------| 
    ------------------------------------------------------------| 
 
    ------------------------------------------------------------| 
    12h13p12----------15------17vvvv----------------------------| 
    ----------14--12------16------------------------------------| 
    ------------------------------------------------------------| 
    ------------------------------------------------------------| 
    ------------------------------------------------------------| 
 
    ---------------------------------------------15--17b19r17---| 
    ------------------12---------15------15/-17-----------------| 
    --15--14--12----------14b16------16-------------------------| 
    --------------14--------------------------------------------| 
    ------------------------------------------------------------| 
    ------------------------------------------------------------| 
 
    ------------------------------------------------------------| 
    15--17b19vvv--15--------------------------------------------| 
    ------------------17----------------------------------------| 
    ------------------------------------------------------------| 
    ------------------------------------------------------------| 
    ------------------------------------------------------------| 
 
End Chorus: 
    ------------------------------------------------------------| 
    ------------------------------------------------------------| 
    --------------7--7--7--7--2--2--2--2------------------------| 
    --5--5--5--5--7--7--7--7--2--2--2--2--2--2--2--2--5--5--5--5| 
    --5--5--5--5--5--5--5--5--0--0--0--0--2--2--2--2--5--5--5--5| 
    --3--3--3--3--------------------------0--0--0--0--3--3--3--3| 
 
    ------------------------------------------------------------| 
    ------------------------------------------------------------| 
    --7--7--7--7--------7--7--5--5--5--5--------------7--7--7--7| 
    --7--7--7--7--2--2--7--7--5--5--5--5--5--5--5--5--7--7--7--7| 
    --5--5--5--5--2--2--5--5--3--3--3--3--5--5--5--5--5--5--5--5| 
    --------------0--0--------------------3--3--3--3------------| 
 
    ------------------------------------------------------------| 
    ------------------------------------------------------------| 
    --------7--7--5--5--5--5--------------7--7--7--7--5--5------| 
    --2--2--7--7--5--5--5--5--5--5--5--5--7--7--7--7--5--5------| 
    --2--2--5--5--3--3--3--3--5--5--5--5--5--5--5--5--3--3------| 
    --0--0--------------------3--3--3--3------------------------| 
 
    ------------|------------------------------|----------------| 
    ------------|------------------------------|----------------| 
    --4\-2------|--2----2---------2----2-------|----------------| 
    --4\-2---5--|--2----2----5----2----2----5--|----------------| 
    --2\-0---5--|--0----0----5----0----0----5--|----------------| 
    ---------3--|------------3--------------3--|----------------| 
Song Order: 
	Intro 
	Verse 1 (x2) 
	Chorus (x2) do * 2nd time only 
	Solo 1 
	Verse 2 
	Chorus (x2) do * 2nd time only (twice) 
	Solo 2 
	Chorus (x3) 
	End Chorus 
 

	  

Search Paypal
auto scroll beats size up size down change color hide chords drawings
tab show chords e-chords YouTube Clip e-chords hide all tabs e-chords go to top tab