Weezer

home > Weezer

In The Garage Bass Tab

Weezer

Difficulty: nolevelnolevel

by Seitoshi

tuner correct add songbook print version text version save to e-mail
chordsukulelecavacokeyboardtabbassdrumsharmonicsflute Guitar Pro
chords

In The Garage

  		|-----------------------------------| Verse.  
|-----------------------------------|  
|--3-3-3-3-3-3-5-5------------------|  
|------------------0-0-0-0-0-0-0-0--|  
|---------------------------------------------------------------------- 
|---------------------------------------------------------------------- 
|--3-3-3-3-3-3-5-5---------3-3-3-----------3-3-3-------5--------------- 
|------------------3-3-3-3-------3-3-3-3-3-------3-3-3---0--0-0-0-0-0-- 
----------------------| Verse continued. 
----------------------| 
--5-------------------| 
----0--0-0-0-0-0-0-0--| 
|-------------------------------------------------------------| Chorus. 
|-------------------------------------------------------------| 
|----------5-5-5-5-------------------------5-5-5-5-3-3-2------| 
|--3-3-3-3---------5-5-5-5-0-0-0-0-3-3-3-3---------------5-3--| 
------------| Chorus. 
------------| 
------------| 
--/5--5--3--| 
|-------------------------------------|  
|-------------------------------------| 
|----------5-5-5-5-/7-7-7-7-\\3-3-3-3--|  
|--3-3-3-3----------------------------| 
	  

Search Paypal
auto scroll beats size up size down change color hide chords drawings
tab show chords e-chords YouTube Clip e-chords hide all tabs e-chords go to top tab