Weezer

home > Weezer

I Do Tab

Weezer

Difficulty: nolevelnolevel

tuner correct add songbook print version text version save to e-mail
chordsukulelecavacokeyboardtabbassdrumsharmonicsflute Guitar Pro
chords

I Do

  		Tabbed By: Tom 
 
This is the short bonus track at the end of the album and is really played on the  
piano but I have transcribed the melody for the guitar.  The only parts which are  
really played by the guitar are the intro and the solo. 
 
Intro 
 
e--------------------------------------------------------------- 
B--------------------------------------------------------------- 
G--------------------------------------------------------------- 
D---------9-----7--------12--9---------7--------------7----5----	     DISTORTION 
A---------------------------------------------------------------- 
E--------------------------------------------------------------- 
 
Verse 
 
e--------------------------------------------------------------- 
B--------------------------------------------------------------- 
G------------------7---------------------------9---------------- 
D--------9--7--9------9---------9--10--9--10--------9-----------      Clean 
A--------------------------------------------------------------- 
E--------------------------------------------------------------- 
 
Chorus 
 
e--------------------------------------------------------------- 
B---------------------------------------------------------------	     x2 
G--------------9--12--12--9--9------------------------------ 
D----9--10--------------------------10----9------------------      Clean 
A--------------------------------------------------------------- 
E--------------------------------------------------------------- 
 
Bridge - same as intro but played clean 
 
Solo - same as intro but with distortion 
 
 
Playing Order 
 
Intro 
Verse 
Chorus 
Verse 
Chorus 
Bridge  
Solo 
Chorus  
Verse 
 
 
I'm pretty sure the notes are right for most of this (you might have to fiddle with  
the chorus) but as it is not really a guitar piece it can probably be played in other  
places on the fretboard.  I think it sounds best here. 
 
Any suggestions e-mail me  [email protected] 
 

	  

Search Paypal
auto scroll beats size up size down change color hide chords drawings
tab show chords e-chords YouTube Clip e-chords hide all tabs e-chords go to top tab