Weezer

home > Weezer

Happy Hour Tab

Weezer

Difficulty: nolevelnolevel

by gustsilva

tuner correct add songbook print version text version save to e-mail
chordsukulelecavacokeyboardtabbassdrumsharmonicsflute Guitar Pro
chords

Happy Hour

  		
Intro 
eb|-------------12------|-------------12------| 
Bb|--10h12-/14------14--|--10h12-/14------12--| 
Gb|---------------------|---------------------| 
Db|---------------------|---------------------| 
Ab|---------------------|---------------------| 
Eb|---------------------|---------------------| 

verse 1 
"Just like in..." 
eb|------------|------------------|-----------------| 
Bb|------------|--14--12--10--10--|-------10--------| 
Gb|--7---7--9--|--14--13--11---9--|--/11--11--9/11~-| 
Db|--7---7--9--|------------------|-----------------| 
Ab|--5---5--7--|------------------|-----------------| 
Eb|------------|------------------|-----------------| 

Chorus 1 
eb|--------------------------|--------------------------| 
Bb|--------------------------|--------------------------| 
Gb|--7--7--7-7--9--9--9-9-9--|--7--7--7-7--9--9--9-9-9--| 
Db|--7--7--7-7--9--9--9-9-9--|--7--7--7-7--9--9--9-9-9--| (x2) 
Ab|--5--5--5-5--7--7--7-7-7--|--5--5--5-5--7--7--7-7-7--| 
Eb|--------------------------|--------------------------| 

verse 2 
"Island..." 
eb|----------------------|-----------------------| 
Bb|-------------------2--|-----------------------| 
Gb|--2-2-2--2-2-2-2-2----|--2-2-2--2-2-2-2-2--2--| 
Db|----------------------|-----------------------| (x4) 
Ab|----------------------|-----------------------| 
Eb|----------------------|-----------------------| 

Chours 2 
eb|---------------------------------|---------------------------------| 
Bb|---------------------------------|---------------------------------| 
Gb|--7-7-7-7-7-7--9--9-9-9-9-9-9-9--|--7-7-7-7-7-7--9--9-9-9-9-9-9-9--| 
Db|--7-7-7-7-7-7--9--9-9-9-9-9-9-9--|--7-7-7-7-7-7--9--9-9-9-9-9-9-9--| (x2) 
Ab|--5-5-5-5-5-5--7--7-7-7-7-7-7-7--|--5-5-5-5-5-5--7--7-7-7-7-7-7-7--| 
Eb|---------------------------------|---------------------------------| 

Solo 
eb|-------------------------------|-------------------------------| 
Bb|-------------------------------|-------------------------------| 
Gb|--11p9-11---11p9-11p9--11--11--|--11p9-11---11p9-11p9--11--11--| 
Db|-------------------------------|-------------------------------| (x3) 
Ab|-------------------------------|-------------------------------| 
Eb|-------------------------------|-------------------------------| 

eb|-------------------------------|---------------------------------| 
Bb|-------------------------------|------14-----14-----14-----------| 
Gb|--11p9-11---11p9-11p9--11--11--|------16b18--16b18--16br18--14~--| 
Db|-------------------------------|---------------------------------| 
Ab|-------------------------------|---------------------------------| 
Eb|-------------------------------|--14\----------------------------| 

Chorus 3 
eb|---------------------------------|---------------------------------| 
Bb|---------------------------------|---------------------------------| 
Gb|--7-7-7-7-7-7--9--9-9-9-9-9-9-9--|--7-7-7-7-7-7--9--9-9-9-9-9-9-9--| 
Db|--7-7-7-7-7-7--9--9-9-9-9-9-9-9--|--7-7-7-7-7-7--9--9-9-9-9-9-9-9--| (x2) 
Ab|--5-5-5-5-5-5--7--7-7-7-7-7-7-7--|--5-5-5-5-5-5--7--7-7-7-7-7-7-7--| 
Eb|---------------------------------|---------------------------------| 

Outro 
eb|---------------------------------|---------------------------------| 
Bb|---------------------------------|---------------------------------| 
Gb|--7-7-7-7-7-7--9--9-9-9-9-9-9-9--|--7-7-7-7-7-7--9--9-9-9-9-9-9-9--| 
Db|--7-7-7-7-7-7--9--9-9-9-9-9-9-9--|--7-7-7-7-7-7--9--9-9-9-9-9-9-9--| (x2) 
Ab|--5-5-5-5-5-5--7--7-7-7-7-7-7-7--|--5-5-5-5-5-5--7--7-7-7-7-7-7-7--| 
Eb|---------------------------------|---------------------------------| 
 
	  

Search Paypal
auto scroll beats size up size down change color hide chords drawings
tab show chords e-chords YouTube Clip e-chords hide all tabs e-chords go to top tab