Weezer

home > Weezer

Falling For You Tab

Weezer

Difficulty: BeginnerBeginner

tuner correct add songbook print version text version save to e-mail
chordsukulelecavacokeyboardtabbassdrumsharmonicsflute Guitar Pro
chords

Falling For You

  		Written by: Rivers Cuomo 
Tabbed by: Stevo Gross 
 
Tunned down 1/2 step (Eb) 
   
 
  Intro Guitar 2: 
  E  ----16----12----16----12----16----12----------------------------| 
  B  -12----12----12----12----12----12-------------------------------| 
 
	 
  Intro Guitar 1: 
  E  ----------------------------------------------------------------| 
  B  ----------------------------------------------------------------| 
  G  -----------6-8-9----------(6)-----------------------------------|  
  D  ---6-7-9-6-------6-6------(6)-------9-11-9-9^11-9^11-9^11-9^11r9| 
  A  -7-------------------9-7-9-7--7-9-6-----------------------------| 
  E  ----------------------------------------------------------------| 
 
   
  1st Verse: 
  E  ----------------------------------------------------------------| 
  B  ----------------------------------------------------------------| 
  G  ----------6-6-6-6-6-6-6-6-----------------4-4-4-4-4-4-4-4-------|   
  D  -6--6--6--6-6-6-6-6-6-6-6-4-4-4-4-4-4-4-4-4-4-4-4-4-4-4-4-------|   
  A  -6--6--6--4-4-4-4-4-4-4-4-4-4-4-4-4-4-4-4-2-2-2-2-2-2-2-2-------|   
  E  -4--4--4------------------2-2-2-2-2-2-2-2-----------------------|   
 
  E  ----------------------------------------------------------------| 
  B  ----------------------------------------------------------------| 
  G  -------------------6-6-6-6-6-6-6-6-2-2-2-2-2-2-2-2-4-4-4-4-4-4--| 
  D  -6-6-6-6--2--2--2--6-6-6-6-6-6-6-6-2-2-2-2-2-2-2-2-4-4-4-4-4-4--| 
  A  -6-6-6-6--2--2--2--4-4-4-4-4-4-4-4-0-0-0-0-0-0-0-0-2-2-2-2-2-2--| 
  E  -4-4-4-4--0--0--0-----------------------------------------------| 
 
  E  ----------------------------------------------------------------| 
  B  ----------------------------------------------------------------| 
  G  4-4------------------6-6-6-6-6-6-6-6-----------------4-4-4-4-4--| 
  D  4-4-2-2-2-2-2-2-2-2--6-6-6-6-6-6-6-6-4-4-4-4-4-4-4-4-4-4-4-4-4--| 
  A  2-2-2-2-2-2-2-2-2-2--4-4-4-4-4-4-4-4-4-4-4-4-4-4-4-4-2-2-2-2-2--| 
  E  ----0-0-0-0-0-0-0-0------------------2-2-2-2-2-2-2-2------------| 
 
  E  ----------------------------------------------------------------| 
  B  ----------------------------------------------------------------| 
  G  4-4-4-------------------6-6-6-6-6-6-6-6-----------------(hold)--| 
  D  4-4-4-6-6-6-6--2--2--2--6-6-6-6-6-6-6-6-4-4-4-4-4-4-4-4-6~------| 
  A  2-2-2-6-6-6-6--2--2--2--4-4-4-4-4-4-4-4-4-4-4-4-4-4-4-4-6~------| 
  E  ------4-4-4-4--0--0--0------------------2-2-2-2-2-2-2-2-4~------| 
 
   
  Short Fill: 
  E  -16----14-16----14-16----14-------------------------------------| 
  B  ----13-------13-------13----------------------------------------| 
 
  
  Chorus 1: 
  E  ----------------------------------------------------------------| 
  B  -----------------------------------------------------*----------| 
  G  ----------2-2-2-2--4--4--4-----------4--4--4--7-7-7--7-----5-5--| 
  D  -6--6--6--2-2-2-2--4--4--4--2-2-2-2--4--4--4--7-7-7--7--5--5-5--| 
  A  -6--6--6--0-0-0-0--2--2--2--2-2-2-2--2--2--2--5-5-5--5--5--3-3--| 
  E  -4--4--4--------------------0-0-0-0---------------------3-------| 
 
  E  ----------------------------------------------------------------| 
  B  ----------------------------------------------------------------| 
  G  5-5-----------2-2-2-2--4--4--4------------------4-4-4-4--------*| 
  D  5-5--6--6--6--2-2-2-2--4--4--4--2-2-2-2-2-2-2-2-4-4-4-4-2-2-2--2| 
  A  3-3--6--6--6--0-0-0-0--2--2--2--2-2-2-2-2-2-2-2-2-2-2-2-2-2-2--2| 
  E  -----4--4--4--------------------0-0-0-0-0-0-0-0---------0-0-0--0| 
 
  E  ----------------------------------------------------------------| 
  B  ----------------------------------------------------------------| 
  G  -7-7-7-7-5-5-5-5---------2-2-2-2--------------------------------| 
  D  -7-7-7-7-5-5-5-5-5-5-5-5-2-2-2-2--------------------------------| 
  A  -5-5-5-5-3-3-3-3-5-5-5-5-0-0-0-0--------------------------------| 
  E  -----------------3-3-3-3----------------------------------------| 
 
 
  Fill: 
  E  ----------------------------------------------------------------| 
  B  ----------------------------------------------------------------| 
  G  -----------4-6-7----------(4)-------------4-6-4-4^6-4^6-4^6r4---| 
  D  ---4-5-7-4-------4-4------(4)-------7-9-7-----------------------| 
  A  -5-------------------7-5-7-5--5-7-4-----------------------------| 
  E  ----------------------------------------------------------------| 
 
   
  2nd Verse: 
  E  ----------------------------------------------------------| 
  B  ----------------------------------------------------------| 
  G  -6-6-6-6-6-6-6-6-----------------4-4-4-4-4-4-4-4----------| 
  D  -6-6-6-6-6-6-6-6-4-4-4-4-4-4-4-4-4-4-4-4-4-4-4-4-6-6-6-6--| 
  A  -4-4-4-4-4-4-4-4-4-4-4-4-4-4-4-4-2-2-2-2-2-2-2-2-6-6-6-6--| 
  E  -----------------2-2-2-2-2-2-2-2-----------------4-4-4-4--| 
 
  E  ----------------------------------------------------------| 
  B  ----------------------------------------------------------| 
  G  ----------6-6-6-6-6-6-6-6-2-2-2-2-2-2-2-2-4-4-4-4-4-4-4-4-| 
  D  -2--2--2--6-6-6-6-6-6-6-6-2-2-2-2-2-2-2-2-4-4-4-4-4-4-4-4-| 
  A  -2--2--2--4-4-4-4-4-4-4-4-0-0-0-0-0-0-0-0-2-2-2-2-2-2-2-2-| 
  E  -0--0--0--------------------------------------------------| 
 
  E  ----------------------------------------------------------| 
  B  ----------------------------------------------------------| 
  G  -----------------6-6-6-6-6-6-6-6-----------------4-4-4-4-4| 
  D  -2-2-2-2-2-2-2-2-6-6-6-6-6-6-6-6-4-4-4-4-4-4-4-4-4-4-4-4-4| 
  A  -2-2-2-2-2-2-2-2-4-4-4-4-4-4-4-4-4-4-4-4-4-4-4-4-2-2-2-2-2| 
  E  -0-0-0-0-0-0-0-0-----------------2-2-2-2-2-2-2-2----------| 
 
  E  ------------------------------------------------------------| 
  B  ------------------------------------------------------------| 
  G  4-4-4-------------------6-6-6-6-6-6-6-6-----------------hold| 
  D  4-4-4-6-6-6-6--2--2--2--6-6-6-6-6-6-6-6-4-4-4-4-4-4-4-4-6~--| 
  A  2-2-2-6-6-6-6--2--2--2--4-4-4-4-4-4-4-4-4-4-4-4-4-4-4-4-6~--| 
  E  ------4-4-4-4--0--0--0------------------2-2-2-2-2-2-2-2-4~--| 
 
 
   
  Solo: 
  E  ------------------------------------------------------------| 
  B  ------------------------------------------------------------| 
  G  -----------4-6-7----------(4)-------------------------------| 
  D  ---4-5-7-4-------4-4------(4)-------7-9-7-9 11 12-12-14-16--| 
  A  -5-------------------7-5-7-5--5-7-4-------------------------| 
  E  ------------------------------------------------------------| 
 
  E  ------------------------------------------------------------| 
  B  -------------------------19-19-17-17-15---------------------| 
  G  -------------------17s19~--------------16-16-19-14h16-14-12-| 
  D  ---16-14-12/-21-19------------------------------------------| 
  A  ------------------------------------------------------------| 
  E  ------------------------------------------------------------| 
 
  E  -------------12s15s19s-21^23-23^24-23-20-19----------20-19~-| 
  B  -------12-15--------------------------------17-19-20--------| 
  G  14-12~------------------------------------------------------| 
  D  ------------------------------------------------------------| 
  A  ------------------------------------------------------------| 
  E  ------------------------------------------------------------| 
 
  E  -19-21^23-20-19-15-17-15~~~---------------------------------| 
  B  ------------------------------------------------------------| 
  G  ------------------------------------------------------------| 
  D  ------------------------------------------------------------| 
  A  ------------------------------------------------------------| 
  E  ------------------------------------------------------------| 
 
 
  3rd Verse: 
  E  ------------------------------------------------------------| 
  B  ------------------------------------------------------------| 
  G  -----------------2-2-2-2-2-2-2-2-7-7-7-7-7-7-7-7-4-4-4-4----| 
  D  -2-2-2-2-2-2-2-2-2-2-2-2-2-2-2-2-7-7-7-7-7-7-7-7-4-4-4-4----| 
  A  -2-2-2-2-2-2-2-2-0-0-0-0-0-0-0-0-5-5-5-5-5-5-5-5-2-2-2-2----| 
  E  -0-0-0-0-0-0-0-0--------------------------------------------| 
 
  E  ---------| 
  B  ---------| 
  G  ---------| 
  D  -5--5--5-| x3 (including part above) 
  A  -5--5--5-| 
  E  -3--3--3-| 
 
  E  ------------------------------------------------------------| 
  B  -------------------------------------------------(hold)-----| 
  G  -----------------2-2-2-2-2-2-2-2-7-7-7-7-7-7-7-7-4----------| 
  D  -2-2-2-2-2-2-2-2-2-2-2-2-2-2-2-2-7-7-7-7-7-7-7-7-4----------| 
  A  -2-2-2-2-2-2-2-2-0-0-0-0-0-0-0-0-5-5-5-5-5-5-5-5-2----------| 
  E  -0-0-0-0-0-0-0-0--------------------------------------------| 
 
 
  Chorus 2: 
  E  ---------------------------------------------------------------| 
  B  ---------------------------------------------------------------| 
  G  -4--4--4--5-5-5-5--7--7--7-----------7--7--7---------*--4------| 
  D  -4--4--4--5-5-5-5--7--7--7--5-5-5-5--7--7--7--3-3-3--3--4--2-2-| 
  A  -2--2--2--3-3-3-3--5--5--5--5-5-5-5--5--5--5--3-3-3--3--2--2-2-| 
  E  ----------------------------3-3-3-3-----------1-1-1--1-----0-0-| 
 
  E  ----------------------------------------------------------------| 
  B  ----------------------------------------------------------------| 
  G  -----4--4--4--5-5-5-5--7--7--7------------------7-7-7-7--------*| 
  D  2-2--4--4--4--5-5-5-5--7--7--7--5-5-5-5-5-5-5-5-7-7-7-7-5-5-5--5| 
  A  2-2--2--2--2--3-3-3-3--5--5--5--5-5-5-5-5-5-5-5-5-5-5-5-5-5-5--5| 
  E  0-0-----------------------------3-3-3-3-3-3-3-3---------3-3-3--3| 
 
  E  -------------------------------------------------------------------| 
  B  -------------------------------------------------------------------| 
  G  ---------4-4-4-4-----------------5-5-5-5---------4-4-4-4-----------| 
  D  -3-3-3-3-4-4-4-4-2-2-2-2-5-5-5-5-5-5-5-5-3-3-3-3-4-4-4-4-2-2-2-2-5~| 
  A  -3-3-3-3-2-2-2-2-2-2-2-2-5-5-5-5-3-3-3-3-3-3-3-3-2-2-2-2-2-2-2-2-5~| 
  E  -1-1-1-1---------0-0-0-0-3-3-3-3---------1-1-1-1---------0-0-0-0-3~| 
 
(*)hold chord for only a short time 
 
note: the solo is written for a guitar with only 21 frets.  It would be 
much easier to play with 23 frets and the bends at the end would not be 
nearly as difficult to play. 
 
The chords repeated 3 times with a lot of space inbetween them, are all 
played like the very first 3 G# chords Rivers plays at the beginning 
of the song. 
 
Song Order: 
----------- 
Intros 
1st Verse 
Short Fill 
Chorus 1 
FIll 
2nd Verse 
Chorus 1 
Solo 
3rd Verse 
Chorus 2 
 

	  

Search Paypal
auto scroll beats size up size down change color hide chords drawings
tab show chords e-chords YouTube Clip e-chords hide all tabs e-chords go to top tab