Weezer

home > Weezer

Fall Together Tab

Weezer

Difficulty: nolevelnolevel

tuner correct add songbook print version text version save to e-mail
chordsukulelecavacokeyboardtabbassdrumsharmonicsflute Guitar Pro
chords

Fall Together

  		Tabbed by: SPITS 
 
 
E|---------------------------------------------| 
B|---------------------------------------------| 
G|------------2--------------------------------| 
D|--3-3-------2------3-3-3---------------------| 
A|--3-3--0h2--0------3-3-3---------------------| 
E|--1-1--------------1-1-1---------------------| 
Main Riff (Palm Muted) 
 
E|---------------------------------------------| 
B|---------------------------------------------| 
G|---------2--2--------------------------------| 
D|--3--3---2--2---2--2---4--4------------------| 
A|--3--3---0--0---2--2---4--4------------------| 
E|--1--1----------0--0---2--2------------------| 
Verse (Palm Muted) 
 
E|---------------------------------------------| 
B|---------------------------------------------| 
G|--7-7-7-7--7-7-7-7---2-2-2-2--2-2-2-2--------| 
D|--7-7-7-7--7-7-7-7---2-2-2-2--2-2-2-2--------| 
A|--5-5-5-5--5-5-5-5---0-0-0-0--0-0-0-0--------| 
E|---------------------------------------------| 
Chorus (Streamline, Mainline) pt.1  
 
E|---------------------------------------------| 
B|---------------------------------------------| 
G|--7-7-7-7--7-7-7-7---------------------------| 
D|--7-7-7-7--7-7-7-7---3-3-3-3--3-3-3-3--------| 
A|--5-5-5-5--5-5-5-5---3-3-3-3--3-3-3-3--------| 
E|---------------------1-1-1-1--1-1-1-1--------| 
Chorus (Fall Together, get up) pt.2 
 
E|---------------------------------------------| 
B|---------------------------------------------| 
G|------------2--------------------------------| 
D|--3-3-------2----2-2-3--2-2-3--2-2-3----2-2--| 
A|--3-3--0h2--0----2-2-3--2-2-3--2-2-3----2-2--| 
E|--1-1------------0-0-1--0-0-1--0-0-1----0-0--| 
Ending (Palm Muted) 
 

	  

Search Paypal
auto scroll beats size up size down change color hide chords drawings
tab show chords e-chords YouTube Clip e-chords hide all tabs e-chords go to top tab