Weezer

home > Weezer

Da Vinci Tab

Weezer

Difficulty: nolevelnolevel

by VsWorld

tuner correct add songbook print version text version save to e-mail
chordsukulelecavacokeyboardtabbassdrumsharmonicsflute Guitar Pro
chords

Da Vinci

  		

  Intro/Verse riff 
eb|---------------------------------------------------------------------------| 
Bb|------------1-------------0--------------0--------------1------------------| 
Gb|--------0------0------0--------------0-------0-------0---------------------| 
Db|----2------------0--0------------0-------------2---2-----------------------| 
Ab|---------------------------------------------------------------------------| 
Eb|---------------------------------------------------------------------------| 

  2nd Guitar part (the high pitched melody that occasionally comes in) 
eb|-12-13-12-10----------| 
Bb|-------------13-------| 
Gb|----------------------| 
Db|----------------------| 
Ab|----------------------| 
Eb|----------------------| 


  Intro/Verse riff with transition to Chorus  (power chords optional) 
eb|---------------------------------------------------------------------------| 
Bb|------------1-------------0--------------0---------------------------------| 
Gb|--------0------0------0--------------0-------0-----5-5--5------------------| 
Db|----2------------0--0------------0-------------2---5-5--5------------------| 
Ab|---------------------------------------------------3-3--3------------------| 
Eb|---------------------------------------------------------------------------| 

  Chorus (words don't line up perfectly with chords) 

        Even Da Vinci couldn't paint you and Steven Hawking can't explain you. Rosetta 
eb|---------------------------------------------------------------------------------| 
Bb|---------------------------------------------------------------------------------| 
Gb|-------------------------------------------------5-5-5-5-5-5-5-5-2-2-2-2-2-2-2-2-| 
Db|-2-2-2-2-2-2-2-2-3-3-3-3-3-3-3-3-5-5-5-5-5-5-5-5-5-5-5-5-5-5-5-5-2-2-2-2-2-2-2-2-| 
Ab|-2-2-2-2-2-2-2-2-3-3-3-3-3-3-3-3-5-5-5-5-5-5-5-5-3-3-3-3-2-2-2-2-0-0-0-0-0-0-0-0-| 
Eb|-0-0-0-0-0-0-0-0-1-1-1-1-1-1-1-1-3-3-3-3-3-3-3-3---------------------------------| 
    
 Stone couldn't translate you. I'm at a loss for words I'm at a loss for words.        
eb|-------------------------------------------------| 
Bb|-------------------------------------------------| 
Gb|---------------------------------5-5-5-5-5-5-5-5-| 
Db|-3-3-3-3-3-3-3-3-5-5-5-5-5-5-5-5-5-5-5-5-5-5-5-5-| 
Ab|-3-3-3-3-3-3-3-3-5-5-5-5-5-5-5-5-3-3-3-3-2-2-2-2-| 
Eb|-1-1-1-1-1-1-1-1-3-3-3-3-3-3-3-3-----------------| 

          I couldn't put it in a novel. I wrote a page, but it was awful 
eb|---------------------------------------------------------------------------------| 
Bb|---------------------------------------------------------------------------------| 
Gb|-------------------------------------------------5-5-5-5-5-5-5-5-2-2-2-2-2-2-2-2-| 
Db|-2-2-2-2-2-2-2-2-3-3-3-3-3-3-3-3-5-5-5-5-5-5-5-5-5-5-5-5-5-5-5-5-2-2-2-2-2-2-2-2-| 
Ab|-2-2-2-2-2-2-2-2-3-3-3-3-3-3-3-3-5-5-5-5-5-5-5-5-3-3-3-3-2-2-2-2-0-0-0-0-0-0-0-0-| 
Eb|-0-0-0-0-0-0-0-0-1-1-1-1-1-1-1-1-3-3-3-3-3-3-3-3---------------------------------| 
  
 Now I just wanna sing a gospel.  I'm at a loss for words I'm at a loss for words. 
eb|-------------------------------------------------| 
Bb|-------------------------------------------------| 
Gb|---------------------------------5-5-5-5-5-5-5-5-| 
Db|-3-3-3-3-3-3-3-3-5-5-5-5-5-5-5-5-5-5-5-5-5-5-5-5-| 
Ab|-3-3-3-3-3-3-3-3-5-5-5-5-5-5-5-5-3-3-3-3-3-3-3-3-| 
Eb|-1-1-1-1-1-1-1-1-3-3-3-3-3-3-3-3-----------------| 

Guitar solo/bridge Play twice 
eb|-0--------1-0--------------------------0-------1(3)1-0---------------------| 
Bb|-----3--------3-1----------1---------------3-----------3-1-----0---1-------| 
Gb|------------------2---0------------------------------------2---------------| 
Db|---------------------------------------------------------------------------| 
Ab|---------------------------------------------------------------------------| 
Eb|---------------------------------------------------------------------------| 

Outro "I'm at a loss for words"   Play twice 
eb|------------8-----------------8------------7---------------8---------------| 
Bb|--------8-------8--------10------------8-------8-------8-------------------| 
Gb|----9-------------10--10-----------7-------------9---9---------------------| 
Db|---------------------------------------------------------------------------| 
Ab|---------------------------------------------------------------------------| 
Eb|---------------------------------------------------------------------------| 
_______________________________________________________________________________________________ 

Not in the song, but the outro also sounds nice played down an octave. Especially on acoustic. 
eb|--------------------------------------------------------------------------| 
Bb|------------1--------------1-------------0--------------1-----------------| 
Gb|--------0-------0------2-------------0-------0-------0--------------------| 
Db|----2-------------3--3-----------0-------------2---2----------------------| 
Ab|--------------------------------------------------------------------------| 
Eb|--------------------------------------------------------------------------| 
_______________________________________________________________________________________________ 

Ending notes                                                   "that's amazing" 
eb|-----12---------------------12---------------------------12-----------------------------| 
Bb|-12------12--10-----10--12------12--10(12)10-----10--12------12--10(12)10-----10--12----| 
Gb|----------------12---------------------------12----------------------------12-----------| 
Db|----------------------------------------------------------------------------------------| 
Ab|----------------------------------------------------------------------------------------| 
Eb|----------------------------------------------------------------------------------------| 

************************************ 

( )= grace note 

************************************ 
	  

Search Paypal
auto scroll beats size up size down change color hide chords drawings
tab show chords e-chords YouTube Clip e-chords hide all tabs e-chords go to top tab