Weezer

home > Weezer

Crab Tab

Weezer

Difficulty: BeginnerBeginner

tuner correct add songbook print version text version save to e-mail
chordsukulelecavacokeyboardtabbassdrumsharmonicsflute Guitar Pro
chords

Crab

  		 
GUITAR 1 INTRO 
---------------|---------------|---------------|---------------|-------- 
---------------|---------------|---------------|---------------|-------- 
-3-3-3-3-3-3-3-|---------------|-7-7-7-7-7-7-7-|---------------|-5-5-3-5 
-3-3-3-3-3-3-3-|-2-2-2-2-2-2-2-|-7-7-7-7-7-7-7-|-7-7-7-7-7-7-7-|-5-5-3-5 
-5-5-5-5-5-5-5-|-2-2-2-2-2-2-2-|-5-5-5-5-5-5-5-|-7-7-7-7-7-7-7-|-3-3-5-3 
---------------|-0-0-0-0-0-0-0-|---------------|-5-5-5-5-5-5-5-|-------- 
 
                                                      GUITAR 2 INTRO 
-------|---------------|---------------|-------------|---------------|-- 
-------|---------------|---------------|-------------|---------------|-- 
-5-5-5-|---------------|-9-9-9-9-9-9-9-|-------------|-5-5-5-5-5-5-5-|-4 
-5-5-5-|-7-7-7-7-7-7-7-|-9-9-9-9-9-9-9-|-------5-6-7-|---------------|-- 
-3-3-3-|-7-7-7-7-7-7-7-|-7-7-7-7-7-7-7-|-5-6-7-------|---------------|-- 
-------|-5-5-5-5-5-5-5-|---------------|-------------|---------------|-- 
 
 
(wah wah peddle) 
-------------|---------------|---------------|---------------------|--- 
-------------|---------------|---------------|---------------------|--- 
-4-4-4-4-4-4-|-7-7-7-7-7-7-7-|-5-5-5-5-5-5-5-|-5-5-5-5-5-5-5-5-5-5-|-5- 
-------------|---------------|---------------|---------------------|--- 
-------------|---------------|---------------|---------------------|--- 
-------------|---------------|---------------|---------------------|--- 
 
 
                    GUITAR 1&2 CHORUS 
-----|-------------|-----------|-----------|-----------|---------|------ 
-----|-------------|-----------|--10101010-|---7-7-7-7-|-9-9-9-9-|101010 
-7-4-|-------5-6-7-|---7-7-7-7-|--10101010-|---7-7-7-7-|-9-9-9-9-|101010 
-----|-5-6-7-------|---7-7-7-7-|---8-8-8-8-|---5-5-5-5-|-7-7-7-7-|-8-8-8 
-----|-------------|-0-5-5-5-5-|-0---------|-0---------|---------|------ 
 
 
 
---------|---------------|---------------|---------------|-----------|-- 
---------|---------------|---------------|---------------|-----------|-- 
10101010-|---------------|10101010101010-|---------------|--10101010-|-- 
10101010-|10101010101010-|10101010101010-|-2-2-2-2-2-2-2-|--10101010-|-- 
-8-8-8-8-|10101010101010-|-8-8-8-8-8-8-8-|-2-2-2-2-2-2-2-|---8-8-8-8-|-- 
---------|-8-8-8-8-8-8-8-|---------------|-0-0-0-0-0-0-0-|-0---------|-0 
 
                                                        GUITAR 2 SOLO 
---------|-----------|-----------|---------------------|---------------- 
---------|-----------|-----------|---------------------|---------------- 
---------|--10101010-|-----------|-5-5-5-5-5-5-5-5-5-5-|-5---------5---- 
10101010-|--10101010-|---5-5-5-5-|-5-5-5-5-5-5-5-5-5-5-|---7---5h7---7-- 
10101010-|---8-8-8-8-|---5-5-5-5-|-3-3-3-3-3-3-3-3-3-3-|-----7---------7 
-8-8-8-8-|-0---------|-0-3-3-3-3-|---------------------|---------------- 
 
                                                                   Z-END 
-----|-----------------|------------------------------------------|----- 
-----|-----------------|------------------------------------------|----- 
-----|-----------9-7s5-|-------9--9-------------12----------------|----- 
-5h7-|-7-5h7p5s3-------|-7-5s3------12-10-12s14----12h14-12s10-10-|----- 
-----|-----------------|------------------------------------------|----- 
-----|-----------------|------------------------------------------|----- 
 
 
 
 
ORDER 
 
Guitar 1 & 2 intro played at same time. 
 
Guitar 1 & 2 chorus.x2 
 
Guitar 1 intro. 
 
Guitar 1 chorus,Guitar 2 solo at same time. 
 
Guitar 1 intro. 
 
Guitar 1 & 2 chorus.(play end of chorus and end of solo twice) 
 
WEEZER RULES!!!!!!!!!!!!!!!!!!!!!!!! 
EMAIL:CATA123.msn.com 
 

	  

Search Paypal
auto scroll beats size up size down change color hide chords drawings
tab show chords e-chords YouTube Clip e-chords hide all tabs e-chords go to top tab