Weezer

home > Weezer

Beverly Hills Tab

Weezer

Difficulty: ExpertExpert

by Andy

tuner correct add songbook print version text version save to e-mail
chordsukulelecavacokeyboardtabbassdrumsharmonicsflute Guitar Pro
chords

Beverly Hills

  		Intro- 
E |------------|| 
B |------------|| 
G |------------|| 
D |-2-2--7-7---|| x3 
A |-2-2--7-7---|| 
E |-0-0--5-5---|| 
 
Em seguida 3 vezes  
 
 
 
E |---|| 
B |---|| 
G |---|| 
D |-9-|| 
A |-9-|| 
E |-7-|| 
 
-a batera- 
 
-verso- 
E |------------|| 
B |------------|| 
G |------------|| 
D |-2-2--7-7---|| x3 
A |-2-2--7-7---|| 
E |-0-0--5-5---|| 
 
Em seguida 3 vezes 
 
E |---|| 
B |---|| 
G |---|| 
D |-9-|| 
A |-9-|| 
E |-7-|| 
 
 
 
-Verso 2- 
 
E |------------|| 
B |------------|| 
G |------------|| 
D |-2-2--7-7---|| x3 
A |-2-2--7-7---|| 
E |-0-0--5-5---|| 
 
Em seguida 3 vezes 
 
E |---|| 
B |---|| 
G |---|| 
D |-9-|| 
A |-9-|| 
E |-7-|| 
 
-Chorus- 
E |------------------------------------------------|| 
B |------------------------------------------------|| 
G |------------------------------------------------|| 
D |-2-2--7-7--9-9--7-7--2-2--7-7--9-9--------------|| x2 
A |-2-2--7-7--9-9--7-7--2-2--7-7--9-9--------------|| 
E |-0-0--5-5--7-7--5-5--0-0--5-5--7-7--------------|| 
 
 
-Solo- (use Autowah) 
 
E |----------------------------------------------------------|| 
B |----------------------------------------------------------|| 
G |-9-7-------------9-7---9b-(12)-9--9-7---------------------|| 
D |-----9-7-7-9-7-------9----------------9-7-7-9-7---7-7-----|| 
A |---------------7--------------------------------7-----10--|| 
E |----------------------------------------------------------|| 
 
Chords usado durante o solo: 
mesmo que Chorus 
Power chords : 
Em, A, Em, A, Em, A, B (Repete) 
 
Bridge Chords: 
E, A, E, A, E, A, A?, A 
 
A? is played- 
 
E-xx232x-e 
 
-Post-Bridge- 
 
E |------------|| 
B |------------|| 
G |------------|| 
D |-2-2--7-7---|| x3 
A |-2-2--7-7---|| 
E |-0-0--5-5---|| 
 
Em seguida 3 vezes 
 
E |---|| 
B |---|| 
G |---|| 
D |-9-|| 
A |-9-|| 
E |-7-|| 
 
-Chorus 2- 
E |------------------------------------------------|| 
B |------------------------------------------------|| 
G |------------------------------------------------|| 
D |-2-2--7-7--9-9--7-7--2-2--7-7--9-9--------------|| x2 
A |-2-2--7-7--9-9--7-7--2-2--7-7--9-9--------------|| 
E |-0-0--5-5--7-7--5-5--0-0--5-5--7-7--------------|| 
 
-Em seguida essa  com- 
E |-----------|| 
B |-----------|| 
G |-----------|| 
D |-7-7--2~~--|| 
A |-7-7--2~~--|| 
E |-5-5--0~~--|| 
          RING!  
e sobre Em 
 
-Ordem- 
Intro 
Verso 1 
Verso 2 
Chorus 
Verso 3 
Verso 4 
Chorus 
Solo 
Bridge 
Post-Bridge 
Chorus 
Chorus 2 (com guitarra solo 2) 
 
 
_______________________________________________________ 
Contribuição: Fabiano F([email protected]) 

	  

Full key step upFull key step up
Half key step upHalf key step up
Half key step downHalf key step down
Full key step downFull key step down
Search Paypal
auto scroll beats size up size down change color hide chords drawings
tab show chords e-chords YouTube Clip e-chords hide all tabs e-chords go to top tab