Weezer

home > Weezer

Across The Sea Tab

Weezer

Difficulty: nolevelnolevel

tuner correct add songbook print version text version save to e-mail
chordsukulelecavacokeyboardtabbassdrumsharmonicsflute Guitar Pro
chords

Across The Sea

  		This is 100% correct. If anyone figures out the solo, please email me at [email protected] 
and put the subject as "Across The Sea Solo" please. Thank you. The Chords to this song are at
the bottom of this tab for those who dont know chords too well yet. 
 
Intro: 
 
E|----3-2-0----------------2--| 
B|----------3--2-0---3-3-2----| 
G|--0--------------2----------| 
D|----------------------------| 
A|----------------------------| 
E|----------------------------| 
 
Before verse play G chord and let it ring, then start the verse 
 
Verse: 
 
G Bm C D 
 
Prechorus: 
 
G Bm Em D 
 
PreChorus 2:(I could never touch you...): 
 
 G Bm C A 
 
Chorus(i got your letter, you got my song): 
 
G G F# Em D C D G 
 
Part that comes right after the first chorus: 
 
E|--------------------------| 
B|--7-7-12-11-7~--3-3-2-7~--| 
G|--------------------------| 
D|--------------------------| 
A|--------------------------| 
E|--------------------------| 
 
The solo is hard. I just stay on the 2nd string 
and play notes that sound like it (stay in the are of 8th to 18th fret) 
 
Bridge(and then i shaved my head...):  
 
E E/D# D/C# Bm A A/G# F# (the A/G# is quiet but its there) 
 
   
CHORDS:(some of them have various ways to play them) 

	  

Full key step upFull key step up
Half key step upHalf key step up
Half key step downHalf key step down
Full key step downFull key step down
Search Paypal
auto scroll beats size up size down change color hide chords drawings
tab show chords e-chords YouTube Clip e-chords hide all tabs e-chords go to top tab