Wasp

home > Wasp

Bad Tab

Wasp

Difficulty: nolevelnolevel

by fernsantana

tuner correct add songbook print version text version save to e-mail
chordsukulelecavacokeyboardtabbassdrumsharmonicsflute Guitar Pro
chords

Bad

  		(riff 1) 
|--------------------------------|--------------------------------| 
|--------------------------------|--------------------------------| 
|-----14---14---12---14----------|----17------12-------12h14------| 
|-----14---14---12---14----------|----17------12-------12h14------| 
|0-------------------------------|0-0-----0--------0--------------| 
|--------------------------------|--------------------------------| 

|--------------------------------|--------------------------------| 
|--------------------------------|--------------------------------| 
|2-------------------------------|---------------2---2------------| 
|2-------------------------------|---------------2---2------------| 
|0-------------------------------|3p0----0-------0---0------------| 
|--------------------------------|------------3-------------------| 

|--------------------------------|--------------------------------| 
|--------------------------------|--------------------------------| 
|------------------------------2-|-2--2--0--2---------------------| 
|3----3----3----5----5----5----2-|-2--2--0--2---------------------| 
|3----3----3----5----5----5----0-|--------------------------------| 
|1----1----1----3----3----3------|--------------------------------| 

|--------------------------------|--------------------------------| 
|--------------------------------|--------------------------------| 
|--------------------------------|--------------------------------| 
|3------3-------3------3------3--|5-------------------------------| 
|3------3-------3------3------3--|5-------------------------------| 
|1------1-------1------1------1--|3-------------------------------| 

|--------------------------------|--------------------------------| 
|--------------------------------|--------------------------------| 
|----------2-------------2-------|----------2---------------------| 
|----------2-------------2-------|----------2----3-------5--------| 
|0---0-0-------0---0-0-----------|0---0-0--------3-------5--------| 
|--------------------------------|---------------1-------3--------| 

|--------------------------------|--------------------------------| 
|--------------------------------|--------------------------------| 
|----------2-------------2-------|----------2----7-------5--------| 
|----------2-------------2-------|----------2----7-------5--------| 
|0---0-0-------0---0-0-----------|0---0-0--------5-------3--------| 
|--------------------------------|--------------------------------| 

|--------------------------------|--------------------------------| 
|--------------------------------|--------------------------------| 
|----------2-------------2-------|----------2---------------------| 
|----------2-------------2-------|----------2----3-------5--------| 
|0---0-0-------0---0-0-----------|0---0-0--------3-------5--------| 
|--------------------------------|---------------1-------3--------| 

|--------------------------------|--------------------------------| 
|--------------------------------|--------------------------------| 
|----------2-------------2-------|----------2----7-------5--------| 
|----------2-------------2-------|----------2----7-------5--------| 
|0---0-0-------0---0-0-----------|0---0-0--------5-------3--------| 
|--------------------------------|--------------------------------| 

|--------------------------------| 
|--------------------------------| 
|7-------------------------------| 
|7-------------------------------| 
|5-------------------------------| 
|--------------------------------| 

|--------------------------------| 
|--------------------------------| 
|2--2---------2------------------| 
|2--2---------2------------------| 
|0--0---------0------------------| 
|--------3-----------------------| 
	  

Search Paypal
auto scroll beats size up size down change color hide chords drawings
tab show chords e-chords YouTube Clip e-chords hide all tabs e-chords go to top tab