Walk The Moon

Big Bad Wolves

Walk The Moon

tabs

by  JESSGOMES

save to print version add songbook text version e-mail correct tuner
chordsukulelecavacokeyboardtabbassdrumsharmonicaflute Guitar Pro
close

there isn't a video lesson for this song

chords

Big Bad Wolves

	  		INTRO 

Electric 1 

E|----------------------| 
B|----------------------| 
G|----------------------| 
D|----------------------| 
A|---11-9-7-----7-444-7-| 
E|-99------9--77--------| 

Electric 2 

E|--------------| 
B|--------------| 
G|-66----9-66---| 
D|-66-99x9-66-9-| 
A|-44-99x7-44-9-| 
E|----77x-----7-| 

VERSE 

Electric 1 

E|----------------------------------------| 
B|----------------------------------------| 
G|---------------------------11119--11119-| 
D|---------------------------x-x-x--x-x-x-| 
A|--------7-444-7-------7-44-9-9-7--9-9-7-| 
E|-99---77--------99-77-------------------| 

Chorus 

Electric 1 
(listen to song for pattern) 
E|---------| 
B|---------| 
G|-12---11-| 
D|-x----x--| 
A|-11---9--| 
E|---------| 

Electric 2 
(this part may be wrong, post corrections :D) 
E|--------------------------------------------------| 
B|--------------------------------------------------| 
G|---------------------------------98986------------| 
D|----------11----9898------11---------------9898---| 
A|----11-77------------9------1111----------------9-| 
E|-99----------77--------99---------------77--------| 

VERSE 

Electric 1 

E|---------------                  
B|---------------                  
G|---------------                  
D|--------------- then intro then  
A|---------7---7-                  
E|-99---77--66---                  

 --------------| 
 --------------| 
 -11119--11119-| 
 -x-x-x--x-x-x-| 
 -9-9-7--9-9-7-| 
 --------------| 

Chorus 

BRIDGE 

Electric 1 
(play repeatedly) 
E|------------------------------| 
B|--------121212-999------------| 
G|---9-11------------111111-999-| 
D|-11---------------------------| 
A|------------------------------| 
E|------------------------------| 

Electric 2 
(listen to song for pattern) 
E|---------------------| 
B|---------------------| 
G|-13-11-13-15-9-11-16-| 
D|-x--x--x--x--x-x--x--| 
A|-11-9--11-13-7-9--14-| 
E|---------------------| 

END WITH Chorus 



P.S. i was a little iffy with this one if you see any mistakes plz post corrections. Thank you :) 
		  

See also:

tabs Michael Jackson - Heal The World tabs Black Eyed Peas - Pump it (solo) tabs Lindsay Lohan - Take me away tabs Decode Acoustic - Paramore tabs Reo Speedwagon - Take it on the Run tabs Justin Timberlake - Rock Your Body
e-chords

Other versions:

tabs Walk The Moon - Big Bad Wolves
auto scroll beats size up size down change color hide chords drawings
tab show chords e-chords YouTube Clip e-chords hide all tabs e-chords go to top tab

share