Violetine

Red

Violetine

tabs

save to print version add songbook text version e-mail correct tuner
chordsukulelecavacokeyboardtabbassdrumsharmonicaflute Guitar Pro
close

there isn't a video lesson for this song

chords

Red

	  		Dropped D 
 
My other tab for this was way out. I know there?s probably still a few 
errors in this tab but hopefully it?s a little closer... 
 
PART 1 
 
e-------------------------------------- 
B---------------9-9---------------9-9-- 
G---------------7-7---------------7-9-- 
D--0-0-0-0--x-x------0-0-0-0--x-x------ 
A--0-0-0-0--x-x------0-0-0-0--x-x------ 
D--0-0-0-0--x-x------0-0-0-0--x-x------ 
 
		pm			pm 
 
This is played a lot of times before going onto part 2. Then the part 
1/part 2 progression repeats. 
 
 
PART 2 
 
e--5--|-----|-- 
B--5--|-----|-- 
G--7--|-----|-- 
D--7--|--5--|-- 
A--5--|--5--|-- 
D--x--|--5--|-- 
 
This is the part where Glenn sings... 
 
 
 
CHORUS 
 
e--------------------5-5-5-5------5-5--- 
B--------------------5-5-5-5------5-5--- 
G--------------------7-7-7-7------7-7--- 
D--0-0-5-5--5-5-5-5--7-7-7-7--7-7-7-7--- 
A--0-0-5-5--5-5-5-5--5-5-5-5--7-7-5-5--- 
D--0-0-5-5--5-5-5-5--x-x-x-x--7-7-x-x--- 
 
?Cut you like a razor....? 
 
Hope this is a little bit of an improvement...  
 

		  

See also:

tabs Powderfinger - Love Your Way tabs Midnight Oil - Hercules tabs John Butler Trio - Ocean tabs Thirsty Merc - Someday, Someday tabs Lee Kernaghan - High Country Solo tabs The Skyhooks - Living In The 70s
e-chords

Other versions:

tabs Treble Charger - Red tabs Violetine - Red tabs Celia Pavey - Red tabs Bosnian Rainbows - Red tabs Catfish And The Bottlemen - Red tabs Taylor Swift - Red (live)
auto scroll beats size up size down change color hide chords drawings
tab show chords e-chords YouTube Clip e-chords hide all tabs e-chords go to top tab

share