Violetine

Gutless Feeling

Violetine

tabs

save to print version add songbook text version e-mail correct tuner
chordsukulelecavacokeyboardtabbassdrumsharmonicaflute Guitar Pro
close

there isn't a video lesson for this song

chords

Gutless Feeling

	  		from the EP Gutless Feeling 
transcribed by Sean Reynolds [email protected] 
 
Verse: 
   A5       A#/A5  
e|---------------------------------| 
B|---------------------------------| 
G|---------------------------------| 
D|------7-------7------------------| 
A|------7-------7-5-7-7-5-10-10-7--| 
E|--5-5---5-6-6--------------------| 
 
Chorus: 
    A5      A#5     E5 
e|-----------------------------------| 
B|-----------------------------------| 
G|------------------9-9-9-9-9-9-9-9--| 
D|--7-7-7-7-8-8-8-8-9-9-9-9-9-9-9-9--| 
A|--7-7-7-7-8-8-8-8-7-7-7-7-7-7-7-7--| 
E|--5-5-5-5-6-6-6-6------------------| 
 
Lyrics: 
 
Time, is only, a figment of my watch, 
It goes around in circles, the end we cannot stop, 
I, have only, one thing to explain, 
It's black, it's black, it's black, it's black, 
The grey spot is a stain 
 
Gutless feeling 
Gutless feeling 
 
I, have only, one thing to explain, 
It's black, it's black, it's black as hell, 
The grey spot still remains. 
 
 
I think that that is about all.  The rest of the lyrics just repeat 
themselves.  I haven't done the solo yet because my friend borrowed the CD 
but I shall update this file soon. I think that that isn't quite how the 
chorus goes either but I will have a look at that too. 
 
Anyway, if you know the solo or maybe the proper chorus you can send it to me 
		  

See also:

tabs Ted Mulry Gang - Jump In My Car tabs Thirsty Merc - Someday, Someday tabs Grinspoon - Chemical Heart tabs The Saints - Stranded tabs Powderfinger - My Happiness tabs Ed Kuepper - By The Way
e-chords

Other versions:

tabs Violetine - Gutless Feeling
auto scroll beats size up size down change color hide chords drawings
tab show chords e-chords YouTube Clip e-chords hide all tabs e-chords go to top tab

share