Veronica Maggio

Jag Kommer (intro)

Veronica Maggio

tabs Expert expert

by  TERR_SCHMITZ

save to print version add songbook text version e-mail correct tuner
chordsukulelecavacokeyboardtabbassdrumsharmonicaflute Guitar Pro
close

there isn't a video lesson for this song

chords

Jag Kommer (intro)

	  		


e|---------------------------------------------------------------------------| 
B|--4-4-x-4/6-6-x-6/8-8-x-8/11-11--------------------------------------------| 
G|--5-5-x-5/7-7-x-7/8-8-x-8/12-12-5-5-x-5/7-7-x-7/8--8--8--------------------| 
D|--------------------------------6-6-x-6/8-8-x-8/10-10-10-8--8--8-----------| 
A|---------------------------------------------------------10-10-10----------| 
E|---------------------------------------------------------------------------| 

e|---------------------------------------------------------------------------| 
B|---------------------------8-8-8-8-----------------------------------------| 
G|--5-5-x-5/7-7-x-7/8--8--8--8-8-8-8-8--x-8--x-8--x-8--8-\7-x-7-x-7----------| 
D|--6-6-x-6/8-8-x-8/10-10-10---------10-x-10-x-10-x-10-10\8-x-8-x-8----------| 
A|---------------------------------------------------------------------------| 
E|---------------------------------------------------------------------------|  
		  

auto scroll beats size up size down change color hide chords drawings
tab show chords e-chords YouTube Clip e-chords hide all tabs e-chords go to top tab

share