Underoath

You're Ever So Inviting

Underoath

tabs

by  INDESTRUCTIBLE

save to print version add songbook text version e-mail correct tuner
chordsukulelecavacokeyboardtabbassdrumsharmonicaflute Guitar Pro
close

there isn't a video lesson for this song

chords

You're Ever So Inviting

	  		   Intro 
E-------------------------------| 
B-------------------------------| 
G-----------------------3-3-3-3-| 
D-4-4-4-4-4-0-0-0-0-0-0-3-3-3-3-| 
A-2-2-2-2-2-x-x-x-x-x-x-3-3-3-3-| 
E-----------0-0-0-0-0-0-1-1-1-1-| 

   Verse 
E-----------------------------------| 
B-----------------------------------| 
G-----------------------------------| 
D-----------------------------------| 
A-2-3-2-3---------0-0-0-0---5-5-5-5-| 
E---------3-3-3-3-2-2-----3---------| 

   Bridge 
E---------------------------| 
B---------------------------| 
G---------------------------| 
D-4-4-4-4-------------------| 
A-4-4-4-4-5-5-5-5-5-0-0-0-0-| 
E-2-2-2-2-3-3-3-3-3-0-0-0-0-| 

   Chorus 
E-----------------------------| 
B-----------------------------| 
G-----------------------------| 
D-----------2-2-2-2-----------| 
A-2-2-2-2-2-0-0-0-0-3-3-3-3-3-| 
E-0-0-0-0-0---------1-1-1-1-1-| 
		  

See also:

tabs Pantera - Cemetary Gates tabs Twisted Syster - Were not gonna take tabs Marilyn Manson - Disposable Teens tabs Dream Theater - Endless Sacrifice tabs Manowar - Brothers Of Metal tabs Alice Cooper - Poison
e-chords

Other versions:

tabs Underoath - You're Ever So Inviting
auto scroll beats size up size down change color hide chords drawings
tab show chords e-chords YouTube Clip e-chords hide all tabs e-chords go to top tab

share