Underoath

Desolate Earth

Underoath

tabs Expert expert

by  JESSBT

save to print version add songbook text version e-mail correct tuner
chordsukulelecavacokeyboardtabbassdrumsharmonicaflute Guitar Pro
close

there isn't a video lesson for this song

chords

Desolate Earth

	  		Intro: Parte lenta no início 

guitarra 1 
E|-------------------------------------| 
B|-------------------------------------| 
G|--------------------------------7----| 
D|------3-------------5----------------| 
A|----1---1---------3---3------5-------| 
D|-1--------1-----3------3---5---------| 

guitarra 2 
E|-----------------------9--------------| 
B|----7--------9-------7----------------| 
G|---8-8-----8--8-----8-----------------| 
D|--9---9---9----9---9------------------| 
A|--------------------------------------| 
D|--------------------------------------| 

guitarra 1 
E|-------------------------------------| 
B|-------------------------------------| 
G|-3--5--7--10--12---------------------| 
D|-------------------------------------| 
A|-1--3--5--8--10----------------------| 
D|-1--3--5--8--10----------------------| 

guitarra 2 
E|-7-----7--9-----------------------| 
B|-7--9--7--7-----------------------| 
G|-8--8--8--8-----------------------| 
D|-9--9--9--9-----------------------| 
A|----------------------------------| 
D|----------------------------------| 

guitarra 1 
E|-------------------------------| 
B|-------------------------------| 
G|------------3333---------------| 
D|-111-333333-3333---------------| 
A|-111-333333-3333---------------| 
D|-111-333333--------------------| 

guitarra 2 
E|-777--------9999---------------| 
B|-777-999999-7777---------------| 
G|-888-888888-8888---------------| 
D|-999-999999-9999---------------| 
A|-------------------------------| 
D|-------------------------------| 

Termina em 

guitarra 1 
E|---------| 
B|---------| 
G|---------| 
D|------1--| 
A|------1--| 
D|------1--| 

guitarra 2 
E|---------| 
B|-----7---| 
G|-----8---| 
D|-----9---| 
A|---------| 
D|---------| 
		  

See also:

tabs Slipknot - Duality(ver 2) tabs Slipknot - Surfacing tabs Rainbow - Long Live Rock N' Roll tabs Dream Theater - As I Am tabs Pantera - Hollow tabs Slipknot - The Blister Exists
e-chords

Other versions:

tabs Underoath - Desolate Earth
auto scroll beats size up size down change color hide chords drawings
tab show chords e-chords YouTube Clip e-chords hide all tabs e-chords go to top tab

share