Underoath

home > Underoath

Reinventing Your Exit Tab

Underoath

Difficulty: nolevelnolevel

by fboy

tuner correct add songbook print version text version save to e-mail
chordsukulelecavacokeyboardtabbassdrumsharmonicsflute Guitar Pro
chords

Reinventing Your Exit

  		  12th and hyde, on a sunday... 
e---------3~--------3~----------------------------------------------- 
B--0-0-0-0---0-0-0-0----(x8)---------------------------------------- 
G---5-5-5-----5-5-5------------------------------------------------- 
D------------------------------------------------------------------- 
A------------------------------------------------------------------- 
D------------------------------------------------------------------- 

Chorus 
    		Guitars 1 and 2 
    Invincible...                    	        x2 
e------------------------------------------------------------------- 
B--0-0-000---------------------------------------------------------- 
G--5-5-555--5-55-5555--5-5-555--5-55-5555--------------------------- 
D--5-5-555--5-55-5555--5-5-555--5-55-5555--------------------------- 
A--0-0-000--3-33-3333--3-3-333--5-55-5555--------------------------- 
D----------------------3-3-333--5-55-5555--------------------------- 

Verse 1 
    		Guitars 1 and 2 
    It starts again, can you feel it...  	x2 
e------------------------------------------------------------------- 
B------0~----------------------------------------------------------- 
G------5~-----5-4h5~---5--4~---------------------------------------- 
D------5~------5--------5--5~--------------------------------------- 
A--0-0-0~----------------------------------------------------------- 
D-----------3~-------5~--------------------------------------------- 

		PreChorus Part 1 
    		Guitar 1 
   Around and round, your uninviting...   	x4 
e------------------------------------------------------------------- 
B--5-5-3-3-5-5-6-6-------------------------------------------------- 
G---5-5-5-5-5-5-5-5------------------------------------------------- 
D------------------------------------------------------------------- 
A------------------------------------------------------------------- 
D------------------------------------------------------------------- 

PreChorus Part 2 
		Guitars 1 and 2   (Listen to get the strumming right) 
e------------------------------------------------------------------------- 
B------------------------------------------------------------------------- 
G--5-5-555-55-5-555-5-5-555-55-5-555-55-5-5-555-55-5-555-5-5-555-55-5-555- 
D--5-5-555-55-5-555-5-5-555-55-5-555-55-5-5-555-55-5-555-5-5-555-55-5-555- 
A--3-3-333-33-3-333-0-0-000-55-5-555-33-3-3-333-33-3-333-0-0-000-55-5-555- 
D--3-3-333-33-3-333-0-0-000-55-5-555-33-3-3-333-33-3-333-0-0-000-55-5-555- 

                       .. 
		PreChorus Part 3 
		Guitar 1 
e------------------------------------------------------------------- 
B--5-5-5-5h6---5-5-5-5h6-------------------------------------------- 
G---5-5-5-5-----5-5-5-5--------------------------------------------- 
D------------------------------------------------------------------- 
A------------------------------------------------------------------- 
D------------------------------------------------------------------- 

		REFRAOOO: 
		Guitars 1 and 2		x4 
e------------------------------------------------------------------- 
B--0-0-000---------------------------------------------------------- 
G--5-5-555--5-55-5555--5-5-555--5-55-5555--------------------------- 
D--5-5-555--5-55-5555--5-5-555--5-55-5555--------------------------- 
A--0-0-000--3-33-3333--3-3-333--5-55-5555--------------------------- 
D----------------------3-3-333--5-55-5555--------------------------- 


		Verse 2 
		Guitars 1 and 2		x2 
e------------------------------------------------------------------- 
B------0~----------------------------------------------------------- 
G------5~-----5-4h5-5~---5--5p4-5~---------------------------------- 
D------5~------5---5~------5---5~----------------------------------- 
A--0-0-0~----------------------------------------------------------- 
D-----------3~---------5~------------------------------------------- 

PreChorus Part 1 
    		Guitar 1 
   Around and round, your uninviting...   	x4 
e------------------------------------------------------------------- 
B--5-5-3-3-5-5-6-6-------------------------------------------------- 
G---5-5-5-5-5-5-5-5------------------------------------------------- 
D------------------------------------------------------------------- 
A------------------------------------------------------------------- 
D------------------------------------------------------------------- 

PreChorus Part 2 
		Guitars 1 and 2   (Listen to get the strumming right) 
e------------------------------------------------------------------------- 
B------------------------------------------------------------------------- 
G--5-5-555-55-5-555-5-5-555-55-5-555-55-5-5-555-55-5-555-5-5-555-55-5-555- 
D--5-5-555-55-5-555-5-5-555-55-5-555-55-5-5-555-55-5-555-5-5-555-55-5-555- 
A--3-3-333-33-3-333-0-0-000-55-5-555-33-3-3-333-33-3-333-0-0-000-55-5-555- 
D--3-3-333-33-3-333-0-0-000-55-5-555-33-3-3-333-33-3-333-0-0-000-55-5-555- 


		REFRAOOO: 
		Guitars 1 and 2		x4 
e------------------------------------------------------------------- 
B--0-0-000---------------------------------------------------------- 
G--5-5-555--5-55-5555--5-5-555--5-55-5555--------------------------- 
D--5-5-555--5-55-5555--5-5-555--5-55-5555--------------------------- 
A--0-0-000--3-33-3333--3-3-333--5-55-5555--------------------------- 
D----------------------3-3-333--5-55-5555--------------------------- 

		Guitar 2	(Mess around with this, you'll get it) 
e------------------------------------------------------------------- 
B------------------------------------------------------------------- 
G-5555-5555------5555-5555-5555-5555------5555-5555-5~-------------- 
D-5555-5555-12--5555-5555-5555-5555-12--5555-5555-5~-------------- 
A-0000-0000-12--3333-5555-0000-0000-12--3333-5555-0~-------------- 
D-----------12--3333-5555-----------12--3333-5555----------------- 


		Interlude Clean 
		Guitar 1	(6X) 
e------------------------------------------------------------------- 
B------------------------------------------------------------------- 
G----5-4h5--5--5-4h5--5--5-5p4--5--5-5p4--5------------------------- 
D-----5----5----5----5----5----5----5----5-------------------------- 
A--0~--------3~----------------------------------------------------- 
D----------------------3~--------5~--------------------------------- 

		Guitar 1	(4x) 
e------------------------------------------------------------------- 
B--5-5-3-3-5-5-6-6-------------------------------------------------- 
G---5-5-5-5-5-5-5-5------------------------------------------------- 
D------------------------------------------------------------------- 
A------------------------------------------------------------------- 
D------------------------------------------------------------------- 

		REFRAOOO: 
		Guitars 1 and 2		x4 
e------------------------------------------------------------------- 
B--0-0-000---------------------------------------------------------- 
G--5-5-555--5-55-5555--5-5-555--5-55-5555--------------------------- 
D--5-5-555--5-55-5555--5-5-555--5-55-5555--------------------------- 
A--0-0-000--3-33-3333--3-3-333--5-55-5555--------------------------- 
D----------------------3-3-333--5-55-5555--------------------------- 


e|-----| 
B|--0--| 
G|--5--| 
D|--5--| 
A|--0--| 
E|-----| 
	  

Search Paypal
auto scroll beats size up size down change color hide chords drawings
tab show chords e-chords YouTube Clip e-chords hide all tabs e-chords go to top tab