Underoath

The Created Void

Underoath

tabs Intermediate intermediate

by  EDUCASTILHO

save to print version add songbook text version e-mail correct tuner
chordsukulelecavacokeyboardtabbassdrumsharmonicaflute Guitar Pro
close

there isn't a video lesson for this song

chords

The Created Void

	  		Intro:    
guitarra 1 

E|-------------------------------------------------------------| 
B|-------------------------------------------------------------| 
G|-----7---------------7-------------7--------------7-----9----| 
D|--7~----5~-3-----7~---5~-3----7~---5~-3-----7~---5~-------| 
A|-------------------------------------------------------------| 
D|-------------------------------------------------------------| 

 0:24    guitarra 2  

E|-------------------------------------------------------------| 
B|-------------------------------------------------------------| 
G|-------------------------------------------------------------|(4x) 
D|-----0-----0-----0-------------------------------------------| 
A|---0-----0-----0-----3-3-------------------------------------| 
D|-0-----0-----0-----0-3-3-------------------------------------| 

0:38  guitarra 1     " ♫ let me take you somewhere..." 

E|-------------------------------------------------------------| 
B|------8~-----------------------------------------------------| 
G|----7--------------------------------------------------------| 
D|-------------3/7-----------7-9-------------------------------| 
A|-------------------------------------------------------------| 
D|-------------------------------------------------------------| 

E|-------------------------------------------------------------| 
B|-------------------------------------------------------------| 
G|-------------------------------------------------------------|(4x) 
D|-----0-----0-----0-------------------------------------------| 
A|---0-----0-----0-----3-3-------------------------------------| 
D|-0-----0-----0-----0-3-3-------------------------------------| 
  
  0:54      guitarra 1 

E|------------------10-8---------------------------------------| 
B|------12-----------------12------------10\------------------| 
G|--9^-----9-7h9~--------------9^--7^^-------------------------| 
D|-------------------------------------------------------------| 
A|-------------------------------------------------------------| 
D|-------------------------------------------------------------| 

  0:54      guitarra 2 

E|-------------------------------------------------------------| 
B|-------------------------------------------------------------| 
G|-------------------------------------------------------------|(4x) 
D|-----0-----0-----0-------------------------------------------| 
A|---0-----0-----0-----3-3-------------------------------------| 
D|-0-----0-----0-----0-3-3-------------------------------------| 


1:16         

E|--10--15--10--15--12--15--12--15-----------------------------| 
B|--10--17--10--17--12--17--12--17-----------------------------| 
G|-------------------------------------------------------------| 
D|-------------------------------------------------------------| 
A|-------------------------------------------------------------| 
D|-------------------------------------------------------------| 

1:16 

E|-------------------------------------------------------------| 
B|-------------------------------------------------------------| 
G|-------------------------------------------------------------|(4x) 
D|-----0-----0-----0-------------------------------------------| 
A|---0-----0-----0-----3-3-------------------------------------| 
D|-0-----0-----0-----0-3-3-------------------------------------| 


1:31   guitarra 1     "♫ it's all in my head..." 

E|-------------------------------------------------------------| 
B|-------------------------------------------------------------| 
G|-------------------------------------------------------------|(4x) 
D|-------------------------------------------------------------| 
A|--7^----------3^-----5^--------------------------------------| 
D|-------------------------------------------------------------| 

1:31   guitarra 2 

E|-------------------------------------------------------------| 
B|-------------------------------------------------------------| 
G|-------------------------------------------------------------|(4x) 
D|-------------------------------------------------------------| 
A|-333333333333-333333-555555----------------------------------| 
D|-333333333333-000000-555555----------------------------------| 

        
 guitarra 1            "♫ what is real..." 

E|---------------7--5------------------------------------------| 
B|--------------------------10---------------------------------| 
G|-----------------------------9-------------------------------| 
D|---9~~~--7---------------------------------------------------| 
A|-------------------------------------------------------------| 
D|-------------------------------------------------------------| 

 guitarra 2 

E|-------------------------------------------------------------| 
B|-------------------------------------------------------------| 
G|-------------------------------------------------------------| 
D|-------------------------------------------------------------| 
A|--7~----555555555555---333-----------------------------------| 
D|--7~----555555555555---333-----------------------------------| 

2:41   ambas guitarras    "♫ they will never understand..." 

E|-------------------------------------------------------------| 
B|-------------------------------------------------------------| 
G|-77777777----------------------------------------------------|(4x) 
D|-77777777----------------------------------------------------| 
A|-77777777--55555555--333-------------------------------------| 
D|-77777777--55555555--333-------------------------------------| 

3:05    guitarra 1 

E|------------| 
B|---------5--| 
G|------------| 
D|------------| 
A|-----7^-----| 
D|--3---------| 

3:17                    
E|-------------------------------------------------------------| 
B|-------------------------------------------------------------| 
G|---2-0-------------2-0----555p4------------------------------| 
D|-0-x-x-----5-555-------2--xxx-x-555-555-5555--------2--------| 
A|-0-0-0--00-3-333-0------3-333-3-333-333-3333-0-0000---3-3----| 
D|-3-3-3--33-3-333-0------3-333-3-333-333-3333-0-0000----------| 

E|-----------------------------------------------------------------| 
B|-----------------------------------------------------------------| 
G|---555-2-----------------2-0---55p4---------------------2-2------| 
D|---xxx-x-555-555-5555--------2-xx----555-555-5555-------2-0-2----| 
A|-3-333-3-333-333-3333-00-------33----333-333-3333-0-0-0-----3-3~-| 
D|-3-333-3-333-333-3333-00-------33----333-333-3333-0-0-0-------3~-| 

         
| ^  bend note 
| /  slide up 
|   slide down 
| h  hammer-on 
| p  pull-off 
| ~  vibrato 
| +  harmonic 
| x  Mute note 
		  

See also:

tabs Pantera - Cemetary Gates tabs Twisted Syster - Were not gonna take tabs Marilyn Manson - Disposable Teens tabs Dream Theater - Endless Sacrifice tabs Manowar - Brothers Of Metal tabs Alice Cooper - Poison
e-chords

Other versions:

tabs Underoath - The Created Void
auto scroll beats size up size down change color hide chords drawings
tab show chords e-chords YouTube Clip e-chords hide all tabs e-chords go to top tab

share