Underoath

Catch Myself Catching Myself

Underoath

tabs

by  JESSGOMES

save to print version add songbook text version e-mail correct tuner
chordsukulelecavacokeyboardtabbassdrumsharmonicaflute Guitar Pro
close

there isn't a video lesson for this song

chords

Catch Myself Catching Myself

	  		 

guitar 1 
e|-----------------------| 
B|-----------------------| 
G|-----------------------| 
D|-----------------------| 
A|--0-1-1-0-8-8----------| 
D|--0-1-1-0-8-8----------| 
    .     . 
Guitar 2 
e|-----------------------| 
B|-----------------------| 
G|-----------------------| 
D|-----------------------| 
A|--0-1-1-0-8-8----------| 
D|--0-1-1-0-8-8----------| 
    .     . 
guitar 1 
e|--------------------------------------| 
B|--------------------------------------| 
G|----7/10-9-7-5-2----------------------| 
D|----x-x--x-x-x-x----------------------| 
A|--0-5/8--7-5-3-0--0-1-1-0-8-8---------| 
D|--0---------------0-1-1-0-8-8---------| 
Guitar 2            .     . 
e|--------------------------------------| 
B|--------------------------------------| 
G|----7~-9-7-5--14-7/14-----------------| 
D|----x--x-x-x--x--x-x------------------| 
A|--0-5~-7-5-3--12-5/12--0-1-1-0-8-8----| 
D|--0--------------------0-1-1-0-8-8----| 
Guitar 1                 .     . 
e|---------------------------------| 
B|---------------------------------| 
G|----7-10-----9-------------------| 
D|----x-x------x-------------------| 
A|--0-5/8------7--1111-8888--------| 
D|--0------8p7----1111-8888--------| 
                        . 
Guitar 2 
e|---------------------------------| 
B|---------------------------------| 
G|-----7/14--10--------------------| 
D|-----x-x---x---------------------| 
A|--0--5/12--8---0h111-88888-------| 
D|--0------------0h111-88888-------| 
,B>Guitar 1 
e|---------------------------------------------| 
B|---------------------------------------------| 
G|-----7/10-----------33---1-1-----------------| 
D|-----x-x-------------------------------------| 
A|--0--5/8---8-7----------------1-0-1/8p7------| 
D|--0--------8-7---0-----0------1-0-1/8p7------| 

Guitar 2 
e|---------------------------------------------| 
B|---------------------------------------------| 
G|-----7/10-----------33---1-1-----------------| 
D|-----x-x-------------------------------------| 
A|--0--5/8---8-7----------------1~-------------| 
D|--0--------8-7---0-----0------1~-------------| 
Guitar 1 
e|------------------------------| 
B|------------------------------| 
G|----7/10-14-5--------0~-------| 
D|----x-x--x--x--------0~-------| 
A|--0-5/8--12-3---1-0--0~-------| 
D|--0-----------8-1-0-----------| 
Guitar 2          
       t    t 
e|-----10---10b-----------------| 
B|------------------------------| 
G|------------------------------| 
D|------------------------------| 
A|------------------------------| 
D|------------------------------| 

Guitar 1 
e|----------------------------------------------------------| 
B|----------------------------------------------------------| 
G|---33333333333333333333333333333333333333333--------------| 
D|---55555555555555555555555555555555555555555--------------| 
A|-----------------------------------------------00000------| 
D|-----------------------------------------------00000------| 
                                                 ..... 
Guitar 2 
e|----------------------------------------------------------| 
B|----------------------------------------------------------| 
G|----------------------------------------------------------| 
D|----------------------------------------------------------| 
A|---3p1p0-----------------3p1p0-----------------00000------| 
D|---3p1p0-----------------3p1p0-----------------00000------| 
                                                 ..... 
Chorus 
Guitar 1                                t          t   t  t t  t t 
e|------------------------------------------------------------------| 
B|--------------------------------------1//////////10--5--3-10-6-5--| 
G|------------------------------------------------------------------| 
D|------------------------------------------------------------------| 
A|--0000000000000000----------55555555------------------------------| 
D|--0000000000000000-10-10-10-55555555------------------------------| 
Guitar 2 
e|-------------------------------------------------------------| 
B|-------------------------------------------------------------| 
G|-------------------------------------------------------------| 
D|-------------------------------------------------------------| 
A|---000000000000000000----------555555555555-888888-777777----| 
D|---000000000000000000-10-10-10-555555555555-888888-777777----| 

There's little break here with some harmonics. 
Guitar 1 
e|--------------------------------------------------------| 
B|--------------------------------------------------------| 
G|------------------------7^------------------------------| 
D|------------------------x-------------------------------| 
A|------------11111-------5^-----11111-11111----0~--------| 
D|------------11111--------------11111-11111----0~--------| 
                                    ..    ..   
Guitar 2 
e|--------------------------------------------------------| 
B|---7*--5*-----------------------------------------------| 
G|---7*--5*-----------------------------------------7^----| 
D|--------------------------------------------------x-----| 
A|------------11111---0~--7*-----11111-11111----0~--5^----| 
D|------------11111---0~--7*-----11111-11111----0~--------| 
                                     .     . 
Guitar 1 
e|---------------------------------------| 
B|---------------------------------------| 
G|---------------------------------------| 
D|---------------------------------------| 
A|------------0-----0-------0---0--------| 
D|---12\\\\\--0--12-0-12-10-0-8-0-8-7----| 
Guitar 2 
e|---------------------------------------| 
B|---------------------------------------| 
G|---------------------------------------| 
D|---------------------------------------| 
A|------------0-----0-------0---0--------| 
D|---12\\\\\--0--12-0-12-10-0-8-0-8-7----| 

"i'm not the same anymore..." 
 Guitar 1 
e|----------------------------------------| 
B|----------------------------------------| 
G|----7~~-----5~~-----7~~-----2~~---------| 
D|----------------------------------------| 
A|----------------------------------------| 
D|----------------------------------------| 
Guitar 1 plays this a few times. 
e|----------------------------------------------------------------| 
B|----------------------------------------------------------------| 
G|--7h10-77-7h10-77-7h10-77-7h10-77-7h9-77-7h9-77-7h9-77-7h9-77---| 
D|----------------------------------------------------------------| 
A|----------------------------------------------------------------| 
D|----------------------------------------------------------------| 
2:24 
Both Guitars 
e|------------------------------------------------------------| 
B|------------------------------------------------------------| 
G|------------------------------------------------------------| 
D|------------------------------------------------------------| 
A|---000000000000000000----------555555555555-888888-777777---| 
D|---000000000000000000-10-10-10-555555555555-888888-777777---| 

e|---------------------------------------------------------| 
B|---------------------------------------------------------| 
G|---------------------------------------------------------| 
D|---------------------------------------------------------| 
A|---777777777777-555555555555-888888888888-777777777777---| 
D|---777777777777-555555555555-888888888888-777777777777---| 

Both Guitars 
e|------------------------------------------------------------| 
B|------------------------------------------------------------| 
G|------------------------------------------------------------| 
D|------------------------------------------------------------| 
A|---000000000000000000----------555555555555-888888-777777---| 
D|---000000000000000000-10-10-10-555555555555-888888-777777---| 

e|---------------------------------------------------------| 
B|---------------------------------------------------------| 
G|---------------------------------------------------------| 
D|---------------------------------------------------------| 
A|---777777777777-555555555555-888888888888-0-1-1-0-8-8----| 
D|---777777777777-555555555555-888888888888-0-1-1-0-8-8----| 
                                            .     .      

Both guitars  
e|---------------------------------------------| 
B|---------------------------------------------| 
G|-----7/10-----------33---1-1-----------------| 
D|-----x-x-------------------------------------| 
A|--0--5/8---8-7----------------1-0-1/8p7------| 
D|--0--------8-7---0-----0------1-0-1/8p7------| 

e|------------------------------------------| 
B|-----------------------------------0~-----| 
G|-----7/10-----------33---1-1-------0~-----| 
D|-----x-x---------------------------0~-----| 
A|--0--5/8---8-7----------------1-0---------| 
D|--0--------8-7---0-----0------1-0---------| 

e|--------------------------------------------| 
B|--------------------------0~----------------| 
G|--------------------------0~----------------| 
D|--------------------------0~----------------| 
A|--00-00-00-00-00-00-00-00-------------------| 
D|--00-00-00-00-00-00-00-00-------------------| 

e|--------------------------------------------| 
B|--------------------------------------------| 
G|--------------------------------------------| 
D|--------------------------------------------| 
A|---0---0---0----------0---0-----------------| 
D|---0---0---0--111111--0---0---111111-1111---| 
                                    ..    
		  

See also:

tabs Pantera - Cemetary Gates tabs Twisted Syster - Were not gonna take tabs Marilyn Manson - Disposable Teens tabs Dream Theater - Endless Sacrifice tabs Manowar - Brothers Of Metal tabs Alice Cooper - Poison
e-chords

Other versions:

tabs Underoath - Catch Myself Catching Myself
auto scroll beats size up size down change color hide chords drawings
tab show chords e-chords YouTube Clip e-chords hide all tabs e-chords go to top tab

share