Ty Segall

Queen Lullabye

Ty Segall

tabs

by  ADALGOMES

save to print version add songbook text version e-mail correct tuner
chordsukulelecavacokeyboardtabbassdrumsharmonicaflute Guitar Pro
close

there isn't a video lesson for this song

chords

Queen Lullabye

	  		
Tuning: DADF#BE 
   INTRO 
 e|--2---2---2---2---2---2---2---2----------------------------------------------------| 
 B|--3---3---3---3---3---3---3---3----------------------------------------------------| 
F#|--3---3---3---3---3---3---3---3------x2--------------------------------------------| 
 D|--0---0---0---0---0---0---0---0----------------------------------------------------| 
 A|--0---0---0---0---0---0---0---0----------------------------------------------------| 
 D|--0-0-0-0-0-0-0-0-0-0-0-0-0-0-0-0--------------------------------------------------| 
   VERSE 
 e|--2----------X--X---X-----X------2-------------------------X----X----X-------------| 
 B|--3----------X--X---X-----X------3-------------------------X----X----X-------------| 
F#|--3-----x5---5--4---5-----5------3----x5-------------------5----4----5-------------| 
 D|--0----------0--0---0-----0------0-------------------------0----0----0-------------| 
 A|--0----------0--0---0-----0------0-------------------------0----0----0-------------| 
 D|--0-0--------5--4---5-----5------0-0-----------------------5----4----5-------------| 

   O'traveller, of the moon, if you see my girl, tell her to, come back soon, 

 e|--X-------X----------X----------X----------X----------X--X------X--X---2-----------| 
 B|--X-------X----------X----------X----------X----------X--X------X--X---3-----------| 
F#|--5-------10---------5----------10---------5----------3--3------5--5---3-----------|
 D|--0-------0----------0----------0----------0----------0--0------0--0---0-----------| 
 A|--0-------0----------0----------0----------0----------0--0------0--0---0-----------| 
 D|--5-------10---------5----------10---------5----------3--3------5--5---0-----------| 

     She's a red headed queen, she ain't very mean,    o'traveller of the moon. 

REPEAT FOR SECOND VERSE 

 e|--2-------2-------0------------------X-----------------X---------------------------| 
 B|--3-------3-------1------------------X-----------------X---------------------------| 
F#|--3-------3-------0------------------5-----------------4---------------------------| 
 D|--0-------0-------0------------------0-----------------0---------------------------| X2 
 A|--0-------0-------0------------------0-----------------0---------------------------| 
 D|--0-------0-------0------------------5-----------------5---------------------------| 

   O'father, father, time, please don't cry, please don't cry,  

 e|-------X----X---X-----X----2-----| 
 B|-------X----X---X-----X----3-----| 
F#|-------3----3---5-----5----3-----| 
 D|-------0----0---0-----0----0-----| 
 A|-------0----0---0-----0----0-----| 
 D|-------3----3---5-----5----0-----| 

     Your daughter she's just fine.  

   OUTRO 
 e|--X-----X-----X--X--X------------| 
 B|--X-----X-----X--X--X------------| 
F#|--12----10----5--8--3------------| REPEAT AND SLOWLY SPEED UP UNTIL END OF SONG. 
 D|--0-----0-----0--0--0------------| 
 A|--0-----0-----0--0--0------------| 
 D|--12----10----5--8--3------------| 



 
		  

See also:

tabs Red Hot Chili Peppers - Fortune Faded tabs Audioslave - Seven Nation Army tabs Sublime - What I Got tabs Red Hot Chili Peppers - Can't Stop tabs Red Hot Chili Peppers - Road Trippin' tabs Red Hot Chili Peppers - Otherside (solos e riff's)
e-chords

Other versions:

tabs Ty Segall - Queen Lullabye
auto scroll beats size up size down change color hide chords drawings
tab show chords e-chords YouTube Clip e-chords hide all tabs e-chords go to top tab

share