Ty Segall

The Faker

Ty Segall

tabs

by  TAMAMOREIRA

save to print version add songbook text version e-mail correct tuner
chordsukulelecavacokeyboardtabbassdrumsharmonicaflute Guitar Pro
close

there isn't a video lesson for this song

chords

The Faker

	  		Intro 
D#|-------|-------|-------|-------|-------|-------|-------|-------| 
A#|-------|--7----|--9----|-------|-------|--7----|--9----|-------| 
F#|--8----|--7----|--9----|--8----|--8----|--7----|--9----|--8----| 
C#|--9----|--7----|--9----|--9----|--9----|--7----|--9----|--9----| 
G#|--9----|--5----|--7----|--9----|--9----|--5----|--7----|--9----| 
D#|--7----|-------|-------|--7----|--7----|-------|-------|--7----| 


Verse 
D#|----------------------------|----------------------------| 
A#|----------------------------|--7--x--7--x--7--x--7--x----| 
F#|--8--x--8--x--8--x--8--x----|--7--x--7--x--7--x--7--x----| 
C#|--9--x--9--x--9--x--9--x----|--7--x--7--x--7--x--7--x----| 
G#|--9--x--9--x--9--x--9--x----|--5--x--5--x--5--x--5--x----| 
D#|--7--x--7--x--7--x--7--x----|----------------------------| 


D#|----------------------------|--------------------------| 
A#|----------------------------|--------------------------| 
F#|--4--x--4--x--4--x--4--x----|--1--x--1--x--4--x--4--x--| 
C#|--5--x--5--x--5--x--5--x----|--2--x--2--x--5--x--5--x--| 
G#|--5--x--5--x--5--x--5--x----|--2--x--2--x--5--x--5--x--| 
D#|--3--x--3--x--3--x--3--x----|--0--x--0--x--3--x--3--x--| 


Chorus 
D#|-------|-------|-------|-------|-------|-------|-------|-------| 
A#|-------|-------|-------|-------|-------|-------|-------|-------| 
F#|--1----|--L----|--8----|--L----|--1----|--L----|--4----|--1----| 
C#|--2----|--L----|--9----|--L----|--2----|--L----|--5----|--2----| 
G#|--2----|--L----|--9----|--L----|--2----|--L----|--5----|--2----| 
D#|--0----|--L----|--7----|--L----|--0----|--L----|--3----|--0----| 
		  

See also:

tabs Red Hot Chili Peppers - Under the brigde tabs Red Hot Chili Peppers - Under the Bridge (completo) tabs 311 - The Love Song tabs Red Hot Chili Peppers - Live in Slane Castle tabs No Doubt - don't speak solo tabs Red Hot Chili Peppers - Under The Bridge Acoustic
e-chords

Other versions:

tabs Ty Segall - The Faker
auto scroll beats size up size down change color hide chords drawings
tab show chords e-chords YouTube Clip e-chords hide all tabs e-chords go to top tab

share