Ty Segall

Diversion

Ty Segall

tabs

by  JOAOEWERTON

save to print version add songbook text version e-mail correct tuner
chordsukulelecavacokeyboardtabbassdrumsharmonicaflute Guitar Pro
close

there isn't a video lesson for this song

chords

Diversion

	  		
Intro 

e|-----------------------------------------------------------------------------| 
B|-----------------------------------------------------------------------------| 
G|-----------------------------------------------------------------------------| 
D|-12-12-12-12-12-12-12-12-12-12-12-12\--/12-12-12-12-12-12-12-12-12-12-12-12\-| 
A|-12-12-12-12-12-12-12-12-12-12-12-12\--/12-12-12-12-12-12-12-12-12-12-12-12\-| 
E|-10-10-10-10-10-10-10-10-10-10-10-10\--/10-10-10-10-10-10-10-10-10-10-10-10\-| 


Verse 

e|-----------------------------------------------------------------------------| 
B|-----------------------------------------------------------------------------| 
G|-----------------------------------------------------------------------------| 
D|-12-12-12-12-12-12-12-12-12-12-12-12\--/12-12-12-12-12-12-12-12-12-12-12-12\-| 
A|-12-12-12-12-12-12-12-12-12-12-12-12\--/12-12-12-12-12-12-12-12-12-12-12-12\-| 
E|-10-10-10-10-10-10-10-10-10-10-10-10\--/10-10-10-10-10-10-10-10-10-10-10-10\-| 

e|-----------------------------------------------------------------------------| 
B|-----------------------------------------------------------------------------| 
G|-----------------------------------------------------------------------------| 
D|-12-12-12-12-12-12-12-12-12-12-12-12\--/7-7-7-7-7-7-7-7-7-7-7-7\-------------| 
A|-12-12-12-12-12-12-12-12-12-12-12-12\--/7-7-7-7-7-7-7-7-7-7-7-7\-------------| 
E|-10-10-10-10-10-10-10-10-10-10-10-10\--/5-5-5-5-5-5-5-5-5-5-5-5\-------------| 

e|-----------------------------------------------------------------------------| 
B|-----------------------------------------------------------------------------| 
G|-----------------------------------------------------------------------------| 
D|-12-12-12-12-12-12-12-12-12-12-12-12\--/5-5-5-5-5-5-5-5-5-5-5-5\-------------| 
A|-12-12-12-12-12-12-12-12-12-12-12-12\--/5-5-5-5-5-5-5-5-5-5-5-5\-------------| 
E|-10-10-10-10-10-10-10-10-10-10-10-10\--/3-3-3-3-3-3-3-3-3-3-3-3\-------------| 


Chorus 

e|---------------------------------------------------------------------------| 
B|---------------------------------------------------------------------------| 
G|-------------9-9-9-9-9-9-------------9-9-9-9-9-9-------------9-9-9-9-9-9---| 
D|-7-7-7-7-7-7-9-9-9-9-9-9-7-7-7-7-7-7-9-9-9-9-9-9-7-7-7-7-7-7-9-9-9-9-9-9---| 
A|-7-7-7-7-7-7-7-7-7-7-7-7-7-7-7-7-7-7-7-7-7-7-7-7-7-7-7-7-7-7-7-7-7-7-7-7---| 
E|-5-5-5-5-5-5-------------5-5-5-5-5-5-------------5-5-5-5-5-5---------------| 

e|------------------------------------------------| 
B|------------------------------------------------| 
G|------------------------------------------------| 
D|-7-7-7-7-7-7/12-12-12-12-12-12-12---------------| 
A|-7-7-7-7-7-7/12-12-12-12-12-12-12---------------| 
E|-5-5-5-5-5-5/10-10-10-10-10-10-10---------------| 


Verse 

e|-----------------------------------------------------------------------------| 
B|-----------------------------------------------------------------------------| 
G|-----------------------------------------------------------------------------| 
D|-12-12-12-12-12-12-12-12-12-12-12-12\--/12-12-12-12-12-12-12-12-12-12-12-12\-| 
A|-12-12-12-12-12-12-12-12-12-12-12-12\--/12-12-12-12-12-12-12-12-12-12-12-12\-| 
E|-10-10-10-10-10-10-10-10-10-10-10-10\--/10-10-10-10-10-10-10-10-10-10-10-10\-| 

e|-----------------------------------------------------------------------------| 
B|-----------------------------------------------------------------------------| 
G|-----------------------------------------------------------------------------| 
D|-12-12-12-12-12-12-12-12-12-12-12-12\--/7-7-7-7-7-7-7-7-7-7-7-7\-------------| 
A|-12-12-12-12-12-12-12-12-12-12-12-12\--/7-7-7-7-7-7-7-7-7-7-7-7\-------------| 
E|-10-10-10-10-10-10-10-10-10-10-10-10\--/5-5-5-5-5-5-5-5-5-5-5-5\-------------| 

e|-----------------------------------------------------------------------------| 
B|-----------------------------------------------------------------------------| 
G|-----------------------------------------------------------------------------| 
D|-12-12-12-12-12-12-12-12-12-12-12-12\--/5-5-5-5-5-5-5-5-5-5-5-5\-------------| 
A|-12-12-12-12-12-12-12-12-12-12-12-12\--/5-5-5-5-5-5-5-5-5-5-5-5\-------------| 
E|-10-10-10-10-10-10-10-10-10-10-10-10\--/3-3-3-3-3-3-3-3-3-3-3-3\-------------| 


Chorus 

e|---------------------------------------------------------------------------| 
B|---------------------------------------------------------------------------| 
G|-------------9-9-9-9-9-9-------------9-9-9-9-9-9-------------9-9-9-9-9-9---| 
D|-7-7-7-7-7-7-9-9-9-9-9-9-7-7-7-7-7-7-9-9-9-9-9-9-7-7-7-7-7-7-9-9-9-9-9-9---| 
A|-7-7-7-7-7-7-7-7-7-7-7-7-7-7-7-7-7-7-7-7-7-7-7-7-7-7-7-7-7-7-7-7-7-7-7-7---| 
E|-5-5-5-5-5-5-------------5-5-5-5-5-5-------------5-5-5-5-5-5---------------| 

e|------------------------------------------------| 
B|------------------------------------------------| 
G|------------------------------------------------| 
D|-7-7-7-7-7-7/12-12-12-12-12-12-12---------------| 
A|-7-7-7-7-7-7/12-12-12-12-12-12-12---------------| 
E|-5-5-5-5-5-5/10-10-10-10-10-10-10---------------| 


Bridge 

e|------------------------------------------------------------------------------| 
B|------------------------------------------------------------------------------| 
G|------------------------------------------------------------------------------| 
D|-7-7-7-7-7-7-7-7-7-7-7-7-7-7-7-7-7-7-7-7-7-7-7-7-7-7-7-7-7-7-7-7-7-7-7-7-7-7--| 
A|-7-7-7-7-7-7-7-7-7-7-7-7-7-7-7-7-7-7-7-7-7-7-7-7-7-7-7-7-7-7-7-7-7-7-7-7-7-7--| 
E|-5-5-5-5-5-5-5-5-5-5-5-5-5-5-5-5-5-5-5-5-5-5-5-5-5-5-5-5-5-5-5-5-5-5-5-5-5-5--| 

e|------------------------------------------------------| 
B|------------------------------------------------------| 
G|-------------9-9-9-9-9-9-------------9-9-9-9-9-9------| 
D|-9-9-9-9-9-9-9-9-9-9-9-9-9-9-9-9-9-9-9-9-9-9-9-9------| 
A|-9-9-9-9-9-9-7-7-7-7-7-7-9-9-9-9-9-9-7-7-7-7-7-7------| 
E|-7-7-7-7-7-7-------------7-7-7-7-7-7------------------| 

e|----------------------------------------------------------| 
B|----------------------------------------------------------| 
G|-------------9-9-9-9-9-9----------------------------------| 
D|-9-9-9-9-9-9-9-9-9-9-9-9-12-12-12-12-12-12-12-12----------| 
A|-9-9-9-9-9-9-7-7-7-7-7-7-12-12-12-12-12-12-12-12----------| 
E|-7-7-7-7-7-7-------------10-10-10-10-10-10-10-10----------| 

Verse 

e|-----------------------------------------------------------------------------| 
B|-----------------------------------------------------------------------------| 
G|-----------------------------------------------------------------------------| 
D|-12-12-12-12-12-12-12-12-12-12-12-12\--/12-12-12-12-12-12-12-12-12-12-12-12\-| 
A|-12-12-12-12-12-12-12-12-12-12-12-12\--/12-12-12-12-12-12-12-12-12-12-12-12\-| 
E|-10-10-10-10-10-10-10-10-10-10-10-10\--/10-10-10-10-10-10-10-10-10-10-10-10\-| 

e|-----------------------------------------------------------------------------| 
B|-----------------------------------------------------------------------------| 
G|-----------------------------------------------------------------------------| 
D|-12-12-12-12-12-12-12-12-12-12-12-12\--/7-7-7-7-7-7-7-7-7-7-7-7\-------------| 
A|-12-12-12-12-12-12-12-12-12-12-12-12\--/7-7-7-7-7-7-7-7-7-7-7-7\-------------| 
E|-10-10-10-10-10-10-10-10-10-10-10-10\--/5-5-5-5-5-5-5-5-5-5-5-5\-------------| 

e|-----------------------------------------------------------------------------| 
B|-----------------------------------------------------------------------------| 
G|-----------------------------------------------------------------------------| 
D|-12-12-12-12-12-12-12-12-12-12-12-12\--/5-5-5-5-5-5-5-5-5-5-5-5\-------------| 
A|-12-12-12-12-12-12-12-12-12-12-12-12\--/5-5-5-5-5-5-5-5-5-5-5-5\-------------| 
E|-10-10-10-10-10-10-10-10-10-10-10-10\--/3-3-3-3-3-3-3-3-3-3-3-3\-------------| 


Chorus 

e|---------------------------------------------------------------------------| 
B|---------------------------------------------------------------------------| 
G|-------------9-9-9-9-9-9-------------9-9-9-9-9-9-------------9-9-9-9-9-9---| 
D|-7-7-7-7-7-7-9-9-9-9-9-9-7-7-7-7-7-7-9-9-9-9-9-9-7-7-7-7-7-7-9-9-9-9-9-9---| 
A|-7-7-7-7-7-7-7-7-7-7-7-7-7-7-7-7-7-7-7-7-7-7-7-7-7-7-7-7-7-7-7-7-7-7-7-7---| 
E|-5-5-5-5-5-5-------------5-5-5-5-5-5-------------5-5-5-5-5-5---------------| 

e|------------------------------------------------| 
B|------------------------------------------------| 
G|------------------------------------------------| 
D|-7-7-7-7-7-7/12-12-12-12-12-12-12---------------| 
A|-7-7-7-7-7-7/12-12-12-12-12-12-12---------------| 
E|-5-5-5-5-5-5/10-10-10-10-10-10-10---------------| 


Solo 

e|-----------------------------------------------| 
B|-----------------------------------------------| 
G|-------------------------------10--------------| 
D|-12-12-12-12-12-12-12-12-12-12-10-10-10--------| 
A|-12-12-12-12-12-12-12-12-12-12--8-10-10--------| 
E|-10-10-10-10-10-10-10-10-10-10----8--8---------| 


************************************ 
  
| /   Slide up 
| \   Slide down  

************************************ 
		  

See also:

tabs Red Hot Chili Peppers - Under the brigde tabs Red Hot Chili Peppers - Under the Bridge (completo) tabs 311 - The Love Song tabs Red Hot Chili Peppers - Live in Slane Castle tabs No Doubt - don't speak solo tabs Red Hot Chili Peppers - Under The Bridge Acoustic
e-chords

Other versions:

tabs Ty Segall - Diversion
auto scroll beats size up size down change color hide chords drawings
tab show chords e-chords YouTube Clip e-chords hide all tabs e-chords go to top tab

share