Turnstile

Time And Space

Turnstile

tabs

by  ANDRSOUZA

save to print version add songbook text version e-mail correct tuner
chordsukulelecavacokeyboardtabbassdrumsharmonicaflute Guitar Pro
close

there isn't a video lesson for this song

chords

Time And Space

	  		
Intro 
D|-----------------------------------| 
A|-----------------------------------| 
F|-----------------------------------| 
C|-----------------------------------| 
G|7/8-7/8--7--5-5-5-5----------------| x4 
D|5/6-5/6--5--3-3-3-3----------------| 

Verse 
D|-----------------------------------| 
A|-----------------------------------| 
F|-----------------------------------| 
C|-----------------------------------| 
G|7/8-7/8--7--5-5-5-5----------------| x3 
D|5/6-5/6--5--3-3-3-3----------------| 

D|--------------------| 
A|--------------------| 
F|--------------------| 
C|8-8-8-8-8-8-8-8-----| 
G|6-6-6-6-6-6-6-6-----| x1 
D|6-6-6-6-6-6-6-6-----| 

Repeat both verse parts twice 


Chorus 
D|------------------------------------------| 
A|------------------------------------------| 
F|------------------------------------------| 
C|5-5-5-5-5-5-5-5--8-8-8-8--6-6-6-6---------| 
G|5-5-5-5-5-5-5-5--8-8-8-8--6-6-6-6---------| x3 
D|3-3-3-3-3-3-3-3--6-6-6-6--4-4-4-4---------| 

D|----------------------------| 
A|----------------------------| 
F|----------------------------| 
C|5-5-5-5-5-5-5-5--8----------| 
G|5-5-5-5-5-5-5-5--6----------| x1 
D|3-3-3-3-3-3-3-3--6----------| 


Verse 
D|-----------------------------------| 
A|-----------------------------------| 
F|-----------------------------------| 
C|-----------------------------------| 
G|7/8-7/8--7--5-5-5-5----------------| x3 
D|5/6-5/6--5--3-3-3-3----------------| 

D|--------------------| 
A|--------------------| 
F|--------------------| 
C|8-8-8-8-8-8-8-8-----| 
G|6-6-6-6-6-6-6-6-----| x1 
D|6-6-6-6-6-6-6-6-----| 

Repeat both verse parts twice 

Chorus 
D|------------------------------------------| 
A|------------------------------------------| 
F|------------------------------------------| 
C|5-5-5-5-5-5-5-5--8-8-8-8--6-6-6-6---------| 
G|5-5-5-5-5-5-5-5--8-8-8-8--6-6-6-6---------| x3 
D|3-3-3-3-3-3-3-3--6-6-6-6--4-4-4-4---------| 

D|----------------------------| 
A|----------------------------| 
F|----------------------------| 
C|5-5-5-5-5-5-5-5--8----------| 
G|5-5-5-5-5-5-5-5--6----------| x1 
D|3-3-3-3-3-3-3-3--6----------| 

Bridge (same as Chorus) 
D|------------------------------------------| 
A|------------------------------------------| 
F|------------------------------------------| 
C|5-5-5-5-5-5-5-5--8-8-8-8--6-6-6-6---------| 
G|5-5-5-5-5-5-5-5--8-8-8-8--6-6-6-6---------| x3 
D|3-3-3-3-3-3-3-3--6-6-6-6--4-4-4-4---------| 

D|----------------------------| 
A|----------------------------| 
F|----------------------------| 
C|5-5-5-5-5-5-5-5--8----------| 
G|5-5-5-5-5-5-5-5--6----------| x1 
D|3-3-3-3-3-3-3-3--6----------| 

Outro 
D|-------------------------------------------| 
A|-------------------------------------------| 
F|---------5-----5-----5---------------------| 
C|---------5-----5-----5---------------------| 
G|8-5-4-5--5--5--5--5--5--5-4-5--8--8--------| 
D|6-3-2-3--5--3--5--3--5--3-2-3--6--6--------| 
           *     *     *         b  b 

D|-------------------------------------------| 
A|-------------------------------------------| 
F|---------5-----5-----5---------------------| 
C|---------5-----5-----5---------------------| 
G|8-5-4-5--5--5--5--5--5--5-4-5--8-9-8--6----| 
D|6-3-2-3--5--3--5--3--5--3-2-3--6-7-6--4----| 
           *     *     *          

D|-------------------------------------------| 
A|-------------------------------------------| 
F|---------5-----5-----5---------------------| 
C|---------5-----5-----5---------------------| 
G|8-5-4-5--5--5--5--5--5--5-4-5--8--8--------| 
D|6-3-2-3--5--3--5--3--5--3-2-3--6--6--------| 
           *     *     *         b  b 

D|----------------------------------------| 
A|----------------------------------------| 
F|---------5-----5-----5------------------| 
C|---------5-----5-----5------------------| 
G|8-5-4-5--5--5--5--5--5--5-4-5--6--------| 
D|6-3-2-3--5--3--5--3--5--3-2-3--4--------| 
           *     *     *          

_____ 
*=harmonic 
b=bend 
/=slide up 
		  

See also:

tabs Ira! - Vitrine Viva tabs Deep Purple - Black Knight tabs Deep Purple - Demonds Eye tabs Deep Purple - Smoke on the Water (ver. 2) tabs Deep Purple - Clearly Quite Absurd tabs Ira! - Envelheço na Cidade (intro)
e-chords

Other versions:

tabs Turnstile - Time And Space
auto scroll beats size up size down change color hide chords drawings
tab show chords e-chords YouTube Clip e-chords hide all tabs e-chords go to top tab

share