Turnstile

I Dont Wanna Be Blind

Turnstile

tabs

by  ALEFFEDERICO

save to print version add songbook text version e-mail correct tuner
chordsukulelecavacokeyboardtabbassdrumsharmonicaflute Guitar Pro
close

there isn't a video lesson for this song

chords

I Dont Wanna Be Blind

	  		
Intro/verse 
All bass playing the verse riff which is tabbed later on 

Chorus 
D|---------------------------------------------------------------------------| 
A|---------------------------------------------------------------------------| 
F|---------------------------------------------------------------------------| 
C|---------------------------------------------------------------------------| 
G|12-12-12-12----------------------------------------------------------------| 
D|10-10-10-10----------------------------------------------------------------| 
  ^ repeat and bend one step up easy to figure out how long it's played for 

D|---------------------------------------------------------------------------| 
A|---------------------------------------------------------------------------| 
F|-----------12--------------------------------------------------------------| 
C|-----------12--------------------------------------------------------------| x3 
G|9-9-9-7-9--12--9-9-9-7-12-11-7---------------------------------------------| 
D|7-7-7-5-7--12--7-7-7-5-10-9--5---------------------------------------------| 
    harmonics^       

D|---------------------------------------------------------------------------| 
A|---------------------------------------------------------------------------| 
F|-----------12--------------------------------------------------------------| 
C|-----------12--------------------------------------------------------------| x1 
G|9-9-9-7-9--12--9-9-9-7-12-12-12-12-----------------------------------------| 
D|7-7-7-5-7--12--7-7-7-5-10-10-10-10-----------------------------------------| 
                         bend ^ 
Verse 
D|---------------------------------------------------------------------------| 
A|---------------------------------------------------------------------------| 
F|---------------------------------------------------------------------------| 
C|---------------------------------------------------------------------------| x4 
G|9--9--9-7-7-9--12--12--12-11-7-11------------------------------------------| 
D|7--7--7-5-0-7--10--10--10-9--5-9-------------------------------------------| 
repeat 4 times and then play it another 4 times palm muted 

Chorus 
D|---------------------------------------------------------------------------| 
A|---------------------------------------------------------------------------| 
F|---------------------------------------------------------------------------| 
C|---------------------------------------------------------------------------| 
G|12-12-12-12----------------------------------------------------------------| 
D|10-10-10-10----------------------------------------------------------------| 
  ^ repeat and bend one step up easy to figure out how long it's played for 

D|---------------------------------------------------------------------------| 
A|---------------------------------------------------------------------------| 
F|-----------12--------------------------------------------------------------| 
C|-----------12--------------------------------------------------------------| x3 
G|9-9-9-7-9--12--9-9-9-7-12-11-7---------------------------------------------| 
D|7-7-7-5-7--12--7-7-7-5-10-9--5---------------------------------------------| 
    harmonics^       

D|---------------------------------------------------------------------------| 
A|---------------------------------------------------------------------------| 
F|-----------12--------------------------------------------------------------| 
C|-----------12--------------------------------------------------------------| x1 
G|9-9-9-7-9--12--9-9-9-7-12-12-12-12-----------------------------------------| 
D|7-7-7-5-7--12--7-7-7-5-10-10-10-10-----------------------------------------| 
                         bend ^ 

Outro 
D|---------------------------------------------------------------------------| 
A|---------------------------------------------------------------------------| 
F|---------------------------------------------------------------------------| 
C|---------------------------------------------------------------------------| x4 
G|9--9--9-12-9-7--6-5-6-5-6--------------------------------------------------| 
D|7--7--7-10-7-5--4-3-4-3-4--------------------------------------------------| 
fourth time only play up to the first 4/6 power chord 
		  

See also:

tabs Deep Purple - Deep Purple - Smoke On The Water tabs Ira! - Vitrine Viva tabs Ira! - Eu Quero Sempre Mais (Com Pitty, intro) tabs Deep Purple - Smoke On The Water (Easy Intro) tabs Deep Purple - Money Talks tabs Deep Purple - Mistreated
e-chords

Other versions:

tabs Turnstile - I Dont Wanna Be Blind
auto scroll beats size up size down change color hide chords drawings
tab show chords e-chords YouTube Clip e-chords hide all tabs e-chords go to top tab

share