Trapt

home > Trapt

Echo (ver. 2) Tab

Trapt

Difficulty: nolevelnolevel

tuner correct add songbook print version text version save to e-mail
chordsukulelecavacokeyboardtabbassdrumsharmonicsflute Guitar Pro
chords

Echo (ver. 2)

  		 
Tabbed by: Mike S. 
This song rocks, and I couldn?t find a tab for it any where, so I tabbed it out myself,  I?m pretty sure its  
right.  If you find any corrections let me know at [email protected] 
 
*=Harmonic 
r=rest 
 
Intro 
E----------------------------------------------------------------------------- 
B------------------------------------------------------------------------------ 
G------------------------------------------------------------------------- 
D----2---4---7-------2---4---------2---4---7-----2---4------7*------------- 
A----0---2---5-------0---2--4------0---2---5-----0---2---4---------------- 
E---------------------------2------------------------------2-------------- 
                    ?close my eyes?.? 
 
A source tells me that this is the part to play here, repeat it a bunch, and play it during the chorus too. 
 
E: --0--2--4--5--4--2-- 
B: ------------------------ 
G: ------------------------ 
D: ------------------------ 
A: ------------------------ 
E: ------------------------ 	   
?I?ll run away with you?? 
  
 
then the intro with distortion. 
E------------------------------------------------------------------------- 
B------------------------------------------------------------------- 
G---------------------------------------------------------------------- 
D----------2---4---7-------2---4---------2---4---7-----2---4------------ 
A----------0---2---5-------0---2--4------0---2---5-----0---2---4---------------- 
E---------------------------------2------------------------------2--------- 
?Ill run away with you,?. By my side?? 
Verse  (play them as eighth notes with an eighth rest.  
E--------5------5---r--4--r---4--r---4-----------4-r----4-r-----2--r---2-r------2--------- 
B------5-----5-------5------5------5------------5------5-------3-------3-------3----- 
G---------------------------------------------------------------------- 
D------------------------------------------------------------------------ 
A---------------------------------------------------------------------- 
E------------------------------------------------------------------------- 
	?I think about your face?? 
 
 
 
 
 
Then this with distortion 
E------------------------------------------------------------------------- 
B------------------------------------------------------------------- 
G---------------------------------------------------------------------- 
D----------2---4---7-------2---4---------2---4---7-----2---4------------ 
A----------0---2---5-------0---2--4------0---2---5-----0---2---4---------------- 
E---------------------------------2------------------------------2--------- 
	?Close my eyes?? 
 
This is the part Im not sure about, try it and if you find something different, email me. 
Play the first part from the intro with this for 1st guitar. 
E----------------------------------------------------------------------------------- 
B----------------------------------------------------------------------------------- 
G-------------------------------------------------------------------------------- 
D----------7-----7-----7---------4----4----4------------------------------------------ 
A----------7-----7-----7---------4----4----4------------------------------------------- 
E----------5-----5-----5---------2----2----2------------------------------------------ 
	?Asking whyyyy, ill run away with you?? 
Then you go back to the verses. 
Then to the intro with distortion, then this 2nd guitar part again. 
Then back to the intro with distortion. 
 
Then this is kind of the interlude, im pretty sure its right, but I could be wrong. 
Repeat it a couple of times. 
E--------9---7------------------------------------------------------------------------ 
B------------------10---9-----7--------------------------------------------------------- 
G-------------------------------------------------------------------------------- 
D----------------------------------------------------------------------------------- 
A------------------------------------------------------------------------------------ 
E------------------------------------------------------------------------------------- 
 
Then go to the intro and play it clean. 
Then play the part just after the intro, ?ill run away with you?? 
Then its intro with distortion. 
And then your all done. 
Enjoy, this song Rocks!!! 
 

	  

Search Paypal
auto scroll beats size up size down change color hide chords drawings
tab show chords e-chords YouTube Clip e-chords hide all tabs e-chords go to top tab