Trapt

Bleed like me

Trapt

tabs Intermediate intermediate

by  S31FER

save to print version add songbook text version e-mail correct tuner
chordsukulelecavacokeyboardtabbassdrumsharmonicaflute Guitar Pro
close

there isn't a video lesson for this song

chords

Bleed like me

	  		 
Tuning: Standard (EADGBe) 
Tabbed: Axel Herbert "s31fER". 
 
Comments: This tab's all my work, and i'm pretty sure this is 99% correct. 
 
 
Intro/Verse (clean): 
 
e|----0---------0------------------------| 
B|---------3------3------3---------------| 
G|---------------------------0---0-------| 
D|---4--------------2--2-----------2-----| 
A|-2----22---22----------------------5---| 
E|--------------------3----33--33--------| 
 
pre-Chorus (distortion): 
 
"Can you tell..." 
e|---------------------------------------| 
B|---------------------------------------| 
G|-4-444-5555-------5555-----------------| x2 
D|-4-444-5555-5-555-5555-----------------| 
A|-2-222-3333-5-555-3333-----------------| 
E|------------3-333----------------------| 
 
Chorus (distortion): 
 
              "Is it really..." 
e|---------------------------| 
B|---------------------------| 
G|-4444-55555-99999-7777-----| 
D|-4444-55555-99999-7777-5---| 
A|-2222-33333-77777-5555-5---| 
E|-----------------------3---| 
 
the second and third time you play the Chorus the end goes like this: 
 
              "Who bleeeeeeeeeeeeeeeeeeeeeeeeeeeeeeeeds..." 
e|--------------------------------------| 
B|--------------------------------------| 
G|-4444-55555-99999999999-777777--------| 
D|-4444-55555-99999999999-777777-555555-| 
A|-2222-33333-77777777777-555555-555555-| 
E|-------------------------------333333-| 
 
I'm sure you'll figure it out. 
 
after the Chorus you play this part once (clean): 
 
e|--0----------0-----------| 
B|----3----------3---------| 
G|-----------------0-------| 
D|------2------------2-----| 
A|---------0-----------2---| 
E|-3---------3-------------| 
 
Solo/bridge (a little wah for a funky sound on solo) 
 
                                   "I have my doubts..." 
e|-----5/7-------------5/7---------| 
B|-3/5-----5/7-----3/5-----5/7-----| 
G|-------------7-7-------------4-4-| 
D|---------------------------------| 
A|---------------------------------| 
E|---------------------------------| 
 
"So help me take this all the way..." (distortion) 
 
 
e|-----------------------------| 
B|-----------------------------| 
G|-444-44444-222-777-77777-----| x3 
D|-444-44444-222-777-77777-555-| 
A|-222-22222-000-555-55555-555-| 
E|-------------------------333-| 
 
                     "And bleed like meeeeeeeeeeeeeeeeeeee..." 
e|--------------------------------------------| 
B|--------------------------------------------| 
G|-444-44444-222-777-77777777777777777777777--| x1 
D|-444-44444-222-777-77777777777777777777777--| 
A|-222-22222-000-555-55555555555555555555555--| 
E|--------------------------------------------| 
 
Chorus plays again. 
 
Outro is the same as the pre-Chorus. 
 
 
 
That's it for Trapt's Bleed Like Me. Great band i hope more like them come along. 
 
Visit my band's website http://www.meshkal.coz.in  currently being redesigned. 
 
Any comments: [email protected] 
And please don't send spam, chain e-mails etc. 
 
Feel free to use this tab on your website as long as you give me proper credits. 
 
 
 
 
 

		  

See also:

tabs System Of A Down - Lonely Day (ver.2) tabs Linkin Park - In The End (intro) tabs System Of A Down - Lonely Day (intro) tabs System Of A Down - Boom tabs System Of A Down - Sugar tabs Godsmack - I stand alone
e-chords

Other versions:

tabs Garbage - Bleed Like Me tabs Trapt - Bleed like me
auto scroll beats size up size down change color hide chords drawings
tab show chords e-chords YouTube Clip e-chords hide all tabs e-chords go to top tab

share