Tonight Alive

How Does It Feel

Tonight Alive

tabs

by  BOMBAXXX

save to print version add songbook text version e-mail correct tuner
chordsukulelecavacokeyboardtabbassdrumsharmonicaflute Guitar Pro
close

there isn't a video lesson for this song

chords

How Does It Feel

	  		Tuning: Drop D 
Intro: 
e|---------------------------------------------------------------| 
B|---------------------------------------------------------------| 
G|--77-77-77-777-9/10-----77-77-1212-99/10/9---------------------| 
D|--xx-xx-xx-xxx-xxx------xx-xx-xxxx--x-x-x----------------------| 
A|--55-55-55-555-7/8------55-55-1010-77/8/7----------------------| 
D|---------------------------------------------------------------| 

e|---------------------------------------------------------------| 
B|---------------------------------------------------------------| 
G|---------------------------------------------------------------| 
D|--8-------5--------0---------3---------------------------------| 
A|--8-(X8)--5-(X8)---0-(X8)----3-(X8)--------(X2)----------------| 
D|--8-------5--------0---------3---------------------------------| 

Verse:(I prefer to palm mute the verses) 
e|---------------------------------------------------------------| 
B|---------------------------------------------------------------| 
G|---------------------------------------------------------------| 
D|--00---------33---------88---------55--------------------------| 
A|--00--(x4)---33--(x4)---88--(x4)---55--(x4)--------------------| 
D|--00---------33---------88---------55--------------------------| 

Pre-Chorus (LET ME GO) 
e|---------------------------------------------------------------| 
B|---------------------------------------------------------------| 
G|---------------------------------------------------------------| 
D|--88--5--------------------------------------------------------| 
A|--88--5--------------------------------------------------------| 
D|--88--5--------------------------------------------------------| 

Chorus (SAME AS Chorus BUT DIFFERENT STRUMMING PATTERN;SIMPLE ENOUGH TO FIGURE OUT.) 
e|---------------------------------------------------------------| 
B|---------------------------------------------------------------| 
G|---------------------------------------------------------------| 
D|--0000--------3333---------8888--------5555--------------------| 
A|--0000--(X2)--3333--(X2)---8888--(X2)--5555--(X2)--------------| 
D|--0000--------3333---------8888--------5555--------------------| 

REPEAT VERSE TO Chorus AGAIN 
BRIDGE IS SIMILAR JUST VERSE A LITTLE SLOWER 
OUTRO IS VERSE AND THEN A PIANO SOLO 

Any complications, feel free to hmu. 
		  

Full key step upFull key step up
Half key step upHalf key step up
Half key step downHalf key step down
Full key step downFull key step down
hide glossary

See also:

tabs Silverchair - Shade tabs Tame Impala - Alter Ego tabs Tame Impala - Island Walking tabs Tonight Alive - Lonely Girl tabs Silverchair - The Door tabs The Rubens - I'll Surely Die
e-chords

Other versions:

tabs Citizen - How Does It Feel tabs Tonight Alive - How Does It Feel
auto scroll beats size up size down change color hide chords drawings
tab show chords e-chords YouTube Clip e-chords hide all tabs e-chords go to top tab

share