Tonight Alive

home > Tonight Alive

Drive Tab

Tonight Alive

Difficulty: nolevelnolevel

by abelamin

tuner correct add songbook print version text version save to e-mail
chordsukulelecavacokeyboardtabbassdrumsharmonicsflute Guitar Pro
chords

Drive

Key:  D More
Drive Key AA
Drive Key A#A#
Drive Key BB
Drive Key CC(one step down)
Drive Key C#C#(half step down)
Drive Key DD(original key)
Drive Key D#D#(half step up)
Drive Key EE(one step up)
Drive Key FF
Drive Key F#F#
Drive Key GG
Drive Key G#G#
  		
INTRO AND VERSE(NOT MUCH GUITAR MORE PIANO BASED SYNTH STUFF BUT THESE WOULD BE THE CHORDS) 
e|---------------------------------------------------------------------------| 
B|---------------------------------------------------------------------------| 
G|---------------------------------------------------------------------------| 
D|---5------7--2------------0------------------------------------------------| 
A|---5------7--2------------0------------------------------------------------| 
D|---5------7--2------------0------------------------------------------------| 

Chorus (SLIDE IS OPTIONAL, JUST HOW I PLAY IT) 
e|---------------------------------------------------------------------------| 
B|---------------------------------------------------------------------------| 
G|---------------------------------------------------------------------------| 
D|---5555-----H7--2222------000/5--------------------------------------------| 
A|---5555(X2)-H7--2222(X2)--000/5--------------------------------------------| 
E|---5555-----H7--2222------000/5--------------------------------------------| 
BRIDGE 
e|---------------------------------------------------------------------------| 
B|---------------------------------------------------------------------------| 
G|---------------------------------------------------------------------------| 
D|---10-----5-----------2-----000---2----------------------------------------| 
A|---10(X8)-5-(X8)------2(X8)-000---2(X8)------------------------------------| 
E|---10-----5-----------2-----000---2----------------------------------------| 
 
	  

Search Paypal
auto scroll beats size up size down change color hide chords drawings
tab show chords e-chords YouTube Clip e-chords hide all tabs e-chords go to top tab