TobyMac

Starts With Me

TobyMac

tabs

by  UBIRBOMFIM

save to print version add songbook text version e-mail correct tuner
chordsukulelecavacokeyboardtabbassdrumsharmonicaflute Guitar Pro
close

there isn't a video lesson for this song

chords

Starts With Me

	  		
Intro 
e|-------------------------------| 
B|-------------------------------| 
G|-----5-------6-------1------3--| 
D|-----------8-------3------4----| (x2) 
A|-------------------------------| 
E|--4-----6--------1------2------| 


verse 1 
e|-------------------------------| 
B|-------------------------------| 
G|-----5-------6-------1------3--| 
D|-----------8-------3------4----| (x4) 
A|-------------------------------| 
E|--4-----6--------1------2------| 


Pre-Chorus 1 
e|-------------------------------|    OR    e|-----------------------------| 
B|-------------------------------|          B|-----------------------------| 
G|-----5-------6-------1------3--|          G|-----------------------------| 
D|-----------8-------3------4----|(x4)      D|--6--6-6---8---3--3-3---4----|(x4) You can play it either way 
A|-------------------------------|          A|--6--6-6---8---3--3-3---4----| 
E|--4-----6--------1------2------|          E|--4--4-4---6---1--1-1---2----| 
                PM 

Chorus 1 
e|-------------------------------| 
B|-------------------------------| 
G|-----5-------6-------1------3--| 
D|-----------8-------3------4----|(x4) 
A|-------------------------------| 
E|--4-----6--------1------2------| 


verse 2 
e|-------------------------------| 
B|-------------------------------| 
G|-----5-------6-------1------3--| 
D|-----------8-------3------4----|(x4) 
A|-------------------------------| 
E|--4-----6--------1------2------| 


Pre-Chorus 1 
e|-------------------------------|    OR    e|-----------------------------| 
B|-------------------------------|          B|-----------------------------| 
G|-----5-------6-------1------3--|          G|-----------------------------| 
D|-----------8-------3------4----|(x4)      D|--6--6-6---8---3--3-3---4----|(x4) You can play it either way 
A|-------------------------------|          A|--6--6-6---8---3--3-3---4----| 
E|--4-----6--------1------2------|          E|--4--4-4---6---1--1-1---2----| 
                PM 

Chorus 2 
e|-------------------------------| 
B|-------------------------------| 
G|-----5-------6-------1------3--| 
D|-----------8-------3------4----| (x4) 
A|-------------------------------| 
E|--4-----6--------1------2------| 


Piano Break 
e|-----------------------|-------------------------| 
B|-----------------------|-------------------------| 
G|--3----6----5----5----5|--3----6----5----5----5--| 
D|--4----6----6----6----6|--4----6----6----6----6--| (x2) 
A|-----------------------|-------------------------| 
E|-----------------------|-------------------------| 


Refrain 
e|-------------------------------| 
B|-------------------------------| 
G|-----5-------6-------1------3--| 
D|-----------8-------3------4----| (x4) 
A|-------------------------------| 
E|--4-----6--------1------2------| 


Chorus 3 
e|-------------------------------| 
B|-------------------------------| 
G|-----5-------6-------1------3--| 
D|-----------8-------3------4----| (x4) 
A|-------------------------------| 
E|--4-----6--------1------2------| 


Outro 
e|-------------------------------| 
B|-------------------------------| 
G|-----5-------6-------1------3--| 
D|-----------8-------3------4----| (x4) 
A|-------------------------------| 
E|--4-----6--------1------2------| 
		  

See also:

tabs Eminem - Without me tabs 2Pac - Thugz Mansion Acoustic tabs Eminem - Stan tabs Akon - Dont let up tabs Gwen Stefani - What You Waiting For tabs Frankie J. - Obsession
e-chords

Other versions:

tabs TobyMac - Starts With Me
auto scroll beats size up size down change color hide chords drawings
tab show chords e-chords YouTube Clip e-chords hide all tabs e-chords go to top tab

share