Title Fight

Make You Cry

Title Fight

tabs

by  ROBEPOIEL

save to print version add songbook text version e-mail correct tuner
chordsukulelecavacokeyboardtabbassdrumsharmonicaflute Guitar Pro
close

there isn't a video lesson for this song

chords

Make You Cry

	  		
Tuning: Standard 

This is more of a single guitar tab for both of the guitar parts, but it should good on  
its own. "Hb^r" means to bend those 4s a half step up and release it, usually at the  
same time with the open string below it. 

Intro/Verse: x3 
e|--------------------------------------|--|------------------------------| 
B|-8--8-8-7--7-7------------------------|--|------------------------------| 
G|-x--x-x-x--x-x-7-7-7-9-7-7-7-2--2-2-2-|x3|-2-2-4-4-4-4-4-6-6-6-6-7-7-7--| 
D|-9--9-9-7--7-7-0-0-0-0-0-0-0-0--0-0-0-|--|-0-0-0-0-0-0-0-0-0-0-0-0-0-0--| 
A|-7--7-7-5--5-5-x-x-x-x-x-x-x-x--x-x-x-|--|-x-x-x-x-x-x-x-x-x-x-x-x-x-x--| 
E|---------------7-7-7-7-7-7-7-2--2-2-2-|--|-2-2-3-3-3-3-3-3-3-3-3-3-3-3--| 

Pre-Chorus 
e|-------------------------------| 
B|-------------------------------| 
G|-------0----------------0------| 
D|---0---4------------0---4------| 
A|-4---4------------4---4--------| 
E|-------------------------------| 

Chorus: x2 
e|---------------------------------------------------------| 
B|-3----3--3-3-3-------------------------------------------| 
G|-4----4--4-4-4-7-7--7--7-7-------------------------------| 
D|-4----4--4-4-4-7-7--7--7-7-5----7-7-7-7-4-4-4-4-4-5-5-5--| 
A|-2----2--2-2-2-5-5--5--5-5-5----5-5-5-5-5-5-5-5-5-5-5-5--| 
E|---------------------------3----3-3-3-3-3-3-3-3-3-3-3-3--| 

Verse: x2 
e|--------------------------------------|--|------------------------------| 
B|-8--8-8-7--7-7------------------------|--|------------------------------| 
G|-x--x-x-x--x-x-7-7-7-9-7-7-7-2--2-2-2-|x3|-2-2-4-4-4-4-4-6-6-6-6-7-7-7--| 
D|-9--9-9-7--7-7-0-0-0-0-0-0-0-0--0-0-0-|--|-0-0-0-0-0-0-0-0-0-0-0-0-0-0--| 
A|-7--7-7-5--5-5-x-x-x-x-x-x-x-x--x-x-x-|--|-x-x-x-x-x-x-x-x-x-x-x-x-x-x--| 
E|---------------7-7-7-7-7-7-7-2--2-2-2-|--|-2-2-3-3-3-3-3-3-3-3-3-3-3-3--| 

Pre-Chorus x4 
e|--------------------------------| 
B|--------------------------------| 
G|---------2-2--------------------| 
D|-4-4-2-2-----4-(hb^r)--4-4-4-4--| 
A|--------------------------------| 
E|--------------------------------| 
   pm. . .               . . . . 

Chorus: x5 
e|---------------------------------------------------------| 
B|-3----3--3-3-3-------------------------------------------| 
G|-4----4--4-4-4-7-7--7--7-7-------------------------------| 
D|-4----4--4-4-4-7-7--7--7-7-5----7-7-7-7-4-4-4-4-4-5-5-5--| 
A|-2----2--2-2-2-5-5--5--5-5-5----5-5-5-5-5-5-5-5-5-5-5-5--| 
E|---------------------------3----3-3-3-3-3-3-3-3-3-3-3-3--| 

Outro: 
e|--------------------------------------|--|------------------------------| 
B|-8--8-8-7--7-7------------------------|--|------------------------------| 
G|-x--x-x-x--x-x-7-7-7-9-7-7-7-2--2-2-2-|x3|-2-2-4-4-4-4-4-6-6-6-6-7-7-7--| 
D|-9--9-9-7--7-7-0-0-0-0-0-0-0-0--0-0-0-|--|-0-0-0-0-0-0-0-0-0-0-0-0-0-0--| 
A|-7--7-7-5--5-5-x-x-x-x-x-x-x-x--x-x-x-|--|-x-x-x-x-x-x-x-x-x-x-x-x-x-x--| 
E|---------------7-7-7-7-7-7-7-2--2-2-2-|--|-2-2-3-3-3-3-3-3-3-3-3-3-3-3--| 

Outro: 
e|----------------------|--|-------| 
B|----------------------|--|-7-7---| 
G|---------0------------|x2|-x-x---| 
D|-----0---4--(hb^r)----|--|-7-7---| 
A|-2h4---4--------------|--|-5-5---| 
E|----------------------|--|-------| 
		  

auto scroll beats size up size down change color hide chords drawings
tab show chords e-chords YouTube Clip e-chords hide all tabs e-chords go to top tab

share