Three Doors Down

Not Enough

Three Doors Down

tabs

save to print version add songbook text version e-mail correct tuner
chordsukulelecavacokeyboardtabbassdrumsharmonicaflute Guitar Pro
close

there isn't a video lesson for this song

chords

Not Enough

	  		 
Introdução 
 
Guitarra 1: 
e|----------------------------| 
B|----------------------------| 
G|------0---0----0-----0------| 
D|----2----2---------0---0----| 
A|--0----3-----3---5------5---| 
E|-----------1----3--------3--| 
 
Durante esse riff na intro, a guitarra 2 toca: 
e|-17-----| 
B|----17--| 
 
mais alguns harmônicos e um pequeno solo 
 
 
Refrão: 
E------------------------------------------| 
B------------------------------------------| 
G------------------------------------------| 
D--5--5--5---7---7---10----3---3----5---5--| 
A--5--5--5---7---7---10----3---3----5---5--| 
E--3--3--3---5---5----8----1---1----3---3--| 
 
 
Solo:                
e|----------------|--------------------------------------| 
B|----------------|--5------5------5---------------------| 
G|--5-4-----------|--7b-----7b-----7b---7br---7p5--7--5--| 
D|------5---5-7---|------------------------------------7-| 
A|--------7-------|--------------------------------------| 
E|----------------|--------------------------------------| 
 
e|--------------------|-------------|----------------------| 
B|------8--10---------|8p5----8p5---|----------------------| 
G|--7/9--9---9--------|---7p5----7p5|--7b-----7b-----7-5---| 
D|--------------5-----|-------------|--------------------7-| 
A|----------------7-7-|-------------|----------------------| 
E|--------------------|-------------|----------------------| 
 
 
Termine assim: 
e|----------------------| 
B|----------------------| 
G|-----0------0------0--| 
D|---2------2--------0--| 
A|-0------3----------3--| 
E|-------------------1--| 
 
NOTAÇÃO: 
p = pull-off 
/ = slide 
b = full bend (bend de um tom) 
r = release bend 
 
Letra: 
Seven days underpaid gotta give it up 
Got no time for this life that I'm livin' up 
Shackled down, kicked around, now slave to the grind 
Need some time for myself 
 
I'll give you anything that you want me to 
But I don't have the time so I'll get up with you 
If you don't understand, man, you've got to believe 
There is too much of you but there is not enough of me 
 
Same old song, world moves on while I'm still in bed 
Meet tomorrow today just to get ahead 
Jump the gun on the run, I'm the only one 
Who thinks that I'm fallin' behind? 
 
 
Comentários, dúvidas, reclamações, correções são aceitos... 
[email protected] 
 
_______________________________________________________ 
Contribuição: Vinicius Cesca([email protected]) 
		  

See also:

tabs Yes - Roundabout tabs Queen - we will rock you (solo) tabs Status Quo - Whatever you want tabs Eric Clapton - Tears In Heaven (ver. 3) tabs The Beatles - Blackbird tabs Billy Idol - White Wedding
e-chords

Other versions:

tabs Caedmon's Call - Not Enough tabs Flaw - Not Enough tabs Three Doors Down - Not Enough tabs Our Lady Peace - Not Enough
auto scroll beats size up size down change color hide chords drawings
tab show chords e-chords YouTube Clip e-chords hide all tabs e-chords go to top tab

share