Three Doors Down

Going Down In Flames

Three Doors Down

tabs

save to print version add songbook text version e-mail correct tuner
chordsukulelecavacokeyboardtabbassdrumsharmonicaflute Guitar Pro
close

there isn't a video lesson for this song

chords

Going Down In Flames

	  		 
standard tuning 
played with disortion 
 
Thanks to psychorocker431 I found my mistake and here is now the correct version! 
 
Part A 
E|---------------|--------------|---------------|---------------| 
B|---------------|--------------|---------------|---------------| 
G|--9--11-11--12-|-7--11-11--12-|--9--11-11--12-|-----12-12--11-| 
D|--9--11-11--12-|-7--11-11--12-|--9--11-11--12-|-10--12-12--11-| 
A|--7--9--9---10-|-5--9--9---10-|--7--9--9---10-|-10--10-10--9--| 
E|---------------|--------------|---------------|-8-------------| 
 
E|---------------|---------------|---------------|---------------| 
B|---------------|---------------|---------------|---------------| 
G|--9--11-11--12-|--7--11-11--12-|--9--11-11--12-|---------------| 
D|--9--11-11--12-|--7--11-11--12-|--9--11-11--12-|--10---9---7---| 
A|--7--9--9---10-|--5--9--9---10-|--7--9--9---10-|--10---9---7---| 
E|---------------|---------------|---------------|--8----7---5---| 
 
Part B 
E|-------|-------|-------|-------|  x2 
B|-------|-------|-------|-------| 
G|--9-9--|--5-5--|-------|--7-7--| 
D|--9-9--|--5-5--|--5-5--|--7-7--| 
A|--7-7--|--3-3--|--5-5--|--5-5--| 
E|-------|-------|--3-3--|-------| 
 
E|-----|-----|-----|-----|  x2  play the power chord ones and than start picking 
B|-----|-----|-----|-----|	   single strings in it 
G|--9--|--5--|-----|--7--| 
D|--9--|--5--|--5--|--7--| 
A|--7--|--3--|--5--|--5--| 
E|-----|-----|--3--|-----| 
 
Part C 
E|-----------------|--------------| x2 
B|-----------------|--------------| 
G|--9--11--12------|--12-(12)--7--| 
D|--9--11--12--10--|--12-(12)--7--| 
A|--7--9---10--10--|--10-(10)--5--| 
E|-------------8---|--------------| 
 
Part A 
 
_______________________________________________________ 
Contribuição: Boris Henrique Crema da Silva([email protected]) 

		  

See also:

tabs Billy Idol - White Wedding tabs Heart - Barracuda tabs The Beatles - Let It Be tabs The Shadows - Apache tabs The Cranberries - Ode to my Family tabs Dire Straits - Why Worry
e-chords

Other versions:

tabs Three Doors Down - Going Down In Flames
auto scroll beats size up size down change color hide chords drawings
tab show chords e-chords YouTube Clip e-chords hide all tabs e-chords go to top tab

share